Oops, an error
Loading. Please wait.

In Die Nacht chords

version 1
version 1

Whole song

256 views 3 this week
no commentswrite comment
1 2 3 4 5
2 more votes to show rating
add to favorites
×
Save as Personal and add changes to this tab that will be seen only by you. Learn more ›
×
You can save this tab as Personal to edit and correct it or add notes. All changes will be seen only by you. Learn more »
launch autoscroll
font size
0
reset
transpose
0
reset
simplify chords
display chords
guitar tuner
edit
Autoscroll
slow
fast
+/-
esc
set tempo
stop
Strumming
There is no strumming pattern for this song yet. and get +5 IQ
Sarah Lesch – In die Nacht

Kapo: 7. Bund
¾ Takt, gezupft
Sehr ruhiges, behütendes und einlullendes Schlaflief :)
Grundlegendes, sich ständig wiederholendes Akkordschema:
D Dmaj7 D7 Em7
Em Emmaj7 A7 D4 D



************  Version 1 – wie es sich anhört und auch spielbar ist - zum Anschlagen ********************

[Refrain]
    D  Dmaj7      D7       Em7                
Lalalu Lalalu     Lalalu Lalalu
    Em Emmaj7     A7          D4 D
Lalalu Lalalu     Lalalu Lalalu
     

[1. Strophe]
         D            Dmaj7          D7                Em7                
Schlafe ruhig, kleine Maus, laut und rastlos gings heut zu,
         Em               Emmaj7        A7                D4 D
warst so tapfer, und ganz brav, mach die Äugelein zu, Lalalu

         D            Dmaj7          D7                       Em7                
Schlafe sanft, kleine Laus, komm wir decken die Ohren schnell zu,
        Em              Emmaj7            A7                       D4 D
dass Du dich, nicht erschreckst, wenn es laut wird heut Nacht, Lalalu


[Refrain]
D           Dmaj7       D7          Em7                
Mhmhmmh.... Mhmhmmh.... Mhmhmmh... Mhmhmmh...
Em     Emmaj7   A7         D4 D
Lalalu Lalalu   Lalalu Lalalu


[2. Strophe]
        D               Dmaj7           D7                  Em7                
Träume sanft, kleiner Scheinzwerg, alle Ritter schlafen wie Du,
       Em              Emmaj7            A7                 D4 D
Keiner ruhrt, uns heut Nacht, es ist ein Unwetter bloß, Lalalu
         D             Dmaj7           D7                   Em7                
Geht ein Traum, in die Nacht, küss die Waffen zu Staub, Lalalu
          Em         Emmaj7               A7            D4 D
ist der Krieg, ist vorbei, wenn Du wieder erwachst, Lalalu


[Refrain]
    D  Dmaj7   D7       Em7                
Lalalu Lalalu    Lalalu Lalalu
    Em Emmaj7  A7            D4 D
Lalalu Lalalu    Lalalu Lalalu



********************* Version 2 – wie es theoretisch wahrscheinlich ist - zum Zupfen *********************

[Refrain]
    D  Dmaj7   D7       Em7                
Lalalu Lalalu    Lalalu Lalalu
    Em Emmaj7  A7            D4 D
Lalalu Lalalu    Lalalu Lalalu


[1. Strophe]
         D     Dmaj7        D7               Em                
Schlafe ruhig, kleine Maus, laut und rastlos gings heut zu,
      Em         Emmaj7          A7                       D4 D
warst so tapfer, und ganz brav, mach die Äugelein zu, Lalalu

         D      Dmaj7       D7                                Em                
Schlafe sanft, kleine Laus, komm wir decken die Ohren schnell zu,
 Em           Emmaj7             A7                                D4 D
dass Du dich, nicht erschreckst, wenn es laut wird heut Nacht, Lalalu


[Refrain]
D           Dmaj7         D7          Em                
Mhmhmmh.... Mhmhmmh.... Mhmhmmh... Mhmhmmh...
Em     Emmaj7     A7         D4 D
Lalalu Lalalu     Lalalu Lalalu


[2. Strophe]
        D       Dmaj7              D7                   Em                
Träume sanft, kleiner Scheinzwerg, alle Ritter schlafen wie Du,
Em            Emmaj7          A7                            D4 D
Keiner ruhrt, uns heut Nacht, es ist ein Unwetter bloß, Lalalu
         D     Dmaj7          D7                            Em                
Geht ein Traum, in die Nacht, küss die Waffen zu Staub, Lalalu
 Em            Emmaj7       A7                         D4 D
ist der Krieg, ist vorbei, wenn Du wieder erwachst, Lalalu


[Refrain]

    D  Dmaj7   D7       Em7                
Lalalu Lalalu    Lalalu Lalalu
    Em Emmaj7  A7            D4 D
Lalalu Lalalu    Lalalu Lalalu


(Kapo: 7. Bund)

   D                                               Dmaj7
   1 + 2 + 3 + 1 + 2 + 3 + 1 + 2 + 3 + 1 + 2 + 3 + 1 + 2 + 3 + 1 + 2 + 3 + 1 + 2 + 3 + 1 + 2 + 3   
e|-----------------------------------------------------------------------------------------------|
B|-----10----------10----------10----------10----------9-----------9-----------9-----------9-----|
G|---------9-----------9-----------9-----------9-----------9-----------9-----------9-----------9-|
D|-----------------------------------------------------------------------------------------------|
A|-7-----------7-----------7-----------7-----------7-----------7-----------7-----------7---------|
E|-----------------------------------------------------------------------------------------------|

   D7                                              Em
   1 + 2 + 3 + 1 + 2 + 3 + 1 + 2 + 3 + 1 + 2 + 3 + 1 + 2 + 3 + 1 + 2 + 3 + 1 + 2 + 3 + 1 + 2 + 3   
e|-----------------------------------------------------------------------------------------------|
B|-----8-----------8-----------8-----------8-----------7-----------7-----------7-----------7-----|
G|---------9-----------9-----------9-----------9-----------7-----------7-----------7-----------7-|
D|-----------------------------------------------------------------------------------------------|
A|-7-----------7-----------7-----------7-----------12----------12----------12----------12--------|
E|-----------------------------------------------------------------------------------------------|

  Em                                               Emmaj7
   1 + 2 + 3 + 1 + 2 + 3 + 1 + 2 + 3 + 1 + 2 + 3 + 1 + 2 + 3 + 1 + 2 + 3 + 1 + 2 + 3 + 1 + 2 + 3   
e|-----------------------------------------------------------------------------------------------|
B|-----7-----------7-----------7-----------7-----------7-----------7-----------7-----------7-----|
G|---------7-----------7-----------7-----------7-----------7-----------7-----------7-----------7-|
D|-----------------------------------------------------------------------------------------------|
A|-9-----------9-----------9-----------9-----------8-----------8-----------8-----------8---------|
E|-----------------------------------------------------------------------------------------------|

   A7                                                                                D   D4    D
   1 + 2 + 3 + 1 + 2 + 3 + 1 + 2 + 3 + 1 + 2 + 3 + 1 + 2 + 3 + 1 + 2 + 3 + 1 + 2 + 3 + 1 + 2 + 3   
e|-----------------------------------------------------10--9-------9-----------------------------|
B|-----9-----------9-----------9-----------9-----------10--10------10----------------------------|
G|---------7-----------7-----------7-----------7---------------9---------------------------------|
D|-----------------------------------------------------------------------------------------------|
A|-9-----------9-----------9-----------9-----------7---------------------------------------------|
E|-----------------------------------------------------------------------------------------------|



*****
Ich finde dieses Lied (neben der Intonation) vor allem rhythmisch sehr anspruchsvoll!
Es gibt hier also zwei Versionen:
(1) – Wie es sich anhört und glaube ich auch gespielt werden kann, vor allem wenn Mensch eher anschlägt
      als ihr Zupfmuster zu verwenden (Akkorde über Text).
(2) – Wie theoretisch aber eigentlich wahrscheinlich ist und gespielt werden sollte, wenn man
      Sarahs Zupfmuster verwendet (Akkorde über Text + Zupfmuster in Tabs).

Ich beherrsche das Lied aber noch nicht, nicht zuletzt wahrscheinlich eben wegen jener Rhythmik.
Hab aber auch kein Kapo gerade um anständig mit der Aufnahme zu üben. Ich bin schon gespannt auf
eventuelle Korrekturvorschläge oder Erklärungen …
*****



Das Songbook für das komplette Album "Musen und Matrosen" von Sarah Lesch: https://www.sarahlesch.de/shop/

            
            
Suggest correction
Creating personal tab
Creating personal tab
You can edit any tab online and save it as your Personal.

You can edit, replace or remove any tab part or add personal notes – all changes will be seen only by you.

Personal tabs can be accessed anytime from any device, even offline.
Learn more »
Give kudos to tab author, rate the tab!
1 2 3 4 5
comments
print report bad tab
guest
You may want to rate the tab now too:
select rating
Wanna post a correction for this tab? Suggest correction