Oops, an error
Loading. Please wait.

In Die Nacht chords

version 3
version 3

Whole song

55 views 3 this week
no commentswrite comment
1 2 3 4 5
3 more votes to show rating
add to favorites
×
Save as Personal and add changes to this tab that will be seen only by you. Learn more ›
×
You can save this tab as Personal to edit and correct it or add notes. All changes will be seen only by you. Learn more »
launch autoscroll
font size
0
reset
transpose
0
reset
simplify chords
display chords
guitar tuner
edit
Autoscroll
slow
fast
+/-
esc
set tempo
stop
Strumming
There is no strumming pattern for this song yet. and get +5 IQ
In die Nacht - Sarah Lesch

 D                         Dmaj7                    D7                        G
e|--2-----2-----2-----2---|--2-----2-----2-----2---|--2-----2-----2-----2---|--0-----0-----0-----0---|
B|--3-----3-----3-----3---|--2-----2-----2-----2---|--1-----1-----1-----1---|--0-----0-----0-----0---|
B|----2-----2-----2-----2-|----2-----2-----2-----2-|----2-----2-----2-----2-|----0-----0-----2-----2-|
D|0-----0-----0-----0----|0-----0-----0-----0-----|0-----0-----0-----0-----|5-----5-----5-----5-----|
A|------------------------|------------------------|------------------------|------------------------|
E|------------------------|------------------------|------------------------|------------------------|


 Em                        Em/Eb                    A7                       D           D
e|--0-----0-----0-----0---|--0-----0-----0-----0---|--0-----0-----0-----0---|--2-----2---2-----------|
B|--0-----0-----0-----0---|--0-----0-----0-----0---|--2-----2-----2-----2---|--3-----3---3-----------|
G|----0-----0-----0-----0-|----0-----0-----2-----2-|----0-----0-----0-----0-|----2-----2-------------|
D|2-----2-----2-----2-----|1-----1-----1-----1-----|2-----2-----2-----2-----|0-----0-----0-----------|
A|------------------------|------------------------|------------------------|------------------------|
E|------------------------|------------------------|------------------------|------------------------|

 [Verse]
        D             Dmaj7          D7                  G
Schlafe ruhig, kleine Maus, laut und rastlos gings heut' zu warst
   Em              Em/D#          A7               D
so tapfer und ganz brav, mach die Äugelein zu lala lu 


        D             Dmaj7          D7                  G
Schlafe ruhig, kleine Maus, laut und rastlos gings heut' zu warst
   Em              Em/D#          A7               D
so tapfer und ganz brav, mach die Äugelein zu lala lu 


        D             Dmaj7          D7                       G
Schlafe sanft, kleine Laus, komm wir decken die Ohren schnell zu,
        Em          Em/D#                A7                        D          
dass du dich nicht erschreckst, wenn es laut wird heut' Nacht lala lu 


Mh mh, mh lala lu... 
 

       D              Dmaj7              D7                  G

Träume sanft, kleiner Scheinzwerg - alle Ritter schlafen wie du
Em                   Em/D#           A7                  D

keiner holt uns heut Nacht s'ist ein Unwetter bloß lalla lu 

 
         D            Dmaj7          D7                   G

Geht ein Traum in die Nacht küss die Waffen zu Staub Lala Lu 
        Em        Em/D#          A7               D
bis der Krieg ist vorbei wenn du wieder erwachst lala Lu 


Mh mh, mh lala lu... 

            
            
Suggest correction
Creating personal tab
Creating personal tab
You can edit any tab online and save it as your Personal.

You can edit, replace or remove any tab part or add personal notes – all changes will be seen only by you.

Personal tabs can be accessed anytime from any device, even offline.
Learn more »
Give kudos to tab author, rate the tab!
1 2 3 4 5
comments
print report bad tab
guest
You may want to rate the tab now too:
select rating
Wanna post a correction for this tab? Suggest correction