Oops, an error
Loading. Please wait.

Letzte Runde chords

829 views 33 this week
no commentswrite comment
1 2 3 4 5
1 last vote to show rating
add to favorites
×
Save as Personal and add changes to this tab that will be seen only by you. Learn more ›
×
You can save this tab as Personal to edit and correct it or add notes. All changes will be seen only by you. Learn more »
launch autoscroll
font size
0
reset
transpose
0
reset
simplify chords
display chords
guitar tuner
edit
Autoscroll
slow
fast
+/-
esc
set tempo
stop
About this tab version
Writing [Introl], [verse X] and [interlude] instead of [Vorspiel], [X. Strophe] and [Zwischenspiel] would have had disturbed the original feeling transmitted by this song too heavily. The German equivalents serve to keep the lyrical value of this tender-piece. Enjoy "exclamation mark" :). Was this info helpful? Yes No
Strumming
There is no strumming pattern for this song yet. and get +5 IQ
Sarah Lesch – Letzte Runde

ggf. Capo 5. Bund 
¾ Takt
Wechselbass, ein Beispielschema zum Zupfen ist ganz unten als Tabs angefügt

[Vorspiel]
 Em  B  E  A  A  Em  B  Em 
"Mhmmmmm Mh Mhm mmmmmm Mmhhhhh"     x2 

[Erste Strophe]
    Em              B
Du fehlst auf meinem Telefon,
    E7                  A        A 
beim Klingeln und beim Wählen 
             Em 
Und an der Gitarre,
             B            Em
und du fehlst mir beim Erzählen 
       Em                           B
Beim Schimpfen, beim Scherzen, bei Magenschmerzen 
    E7                         A                     A
Du fehlst meiner Haut, meinem Hirn und dem Herzen
                     Em
Meiner Haut, meinem Hirn und dem Herzen
      B                              Em
Auch Dinge, die weg sind, können schmerzen
    Em                   B 
Du fehlst meinem Hin-und-Her und Zurück
      E7       A    
Meinem Hin-und-Her und Zurück
    A                   Em
Du fehlst mir in Teilen und im Stück
    B            Em    
In Teilen und im Stück
           G            D
Du sags na gut und oder aber, laber-laber
      Em                                  C
und bestellst noch einen Wein auf unsere Zeit
         G                 D
und ich Hey, wenn dus mal warm brauchst, komm vorbei
             Em                                 C
Denn wie du weißt, zu meinem Zimmer ists nicht weit

[Zwischenteil]
   G            D            Em           C 
La _ lalalalala _ lalalalala _ lalalalala Laa lalalala
   G            D            Em           C       C     B     B
   _ lalalalala _ lalalalala _ lalalalala Laa

[Zweite Strophe]
    Em                      B
Du fehlst meiner Liebe und meinem Begehren
     E7                         A
Du fehlst mir in vollen und auch in leeren
 A              Em
   Zugabteilen, Haltestellen
                  B                  Em
du fehlst mir im Kino an peinlichen Stellen
    Em                         B
du fehlst den verschiedensten Körperteilen
    E7                        A
du fehlst mir beim Trödeln und beim Beeilen
    A                         Em
du fehlst mir beim Leuten den Weg beschreiben
                   B               Em
du fehlst mir beim Unter- und Übertreiben
              G                   D
Und du sagst weit, was ist schon weit
              Em                                    C
Was ist schon weit, wenn man nicht weiß, wohin man will
             G                   D
Und ich sag Zeit, was ist schon Zeit
              Em                                C
Was ist schon Zeit, wenn keine Zeit ist fürs Gefühl


[Zwischenteil]

   G            D            Em           C 
La _ lalalalala _ lalalalala _ lalalalala Laa lalalala
   G            D            Em           C       C     B     B
   _ lalalalala _ lalalalala _ lalalalala Laa

[Dritte Strophe]
    Em                     B
Du fehlst mir beim unnötig Geldausgeben
    E7                        A
Du fehlst mir im Traum und im richtigen Leben
    A                           Em
Du fehlst in der Vor- Nach- und Übergangszeit
    B                  Em
Du fehlst ohne Absehbarkeit
    Em                     B
Du fehlst meiner Ganzunzerrissenheit
      E7              A
Meiner ganz Ganzunzerrissenheit
                 A               Em
Du fehlst mir alleine und zu zweit
               B                        Em
Du fehlst ohne Anspruch auf Vollständigkeit

         G         D
Du sagst OK und bezahlst die letzte Runde
        Em                              C
mit den Resten meiner Luftschlossphantasie
           G               D
Nichts ist OK Ich seh dich an und denke dann,
           Em                                  C
ich glaube nicht daran, dass jemand was nicht kann

[Zwischenteil]
                             G            D            Em           C 
oder das jemand was nicht tut_ lalalalala _ lalalalala _ lalalalala Laa lalalala
                             G            D            Em           C       C  
                             _ lalalalala _ lalalalala _ lalalalala Laa    La la

[Zwischenteil eine Oktave höher und ohne B am Ende]
   G            D            Em           C 
   _ lalalalala _ lalalalala _ lalalalala Laa lalalala
   G            D            Em           C       C    
   _ lalalalala _ lalalalala _ lalalalala Laa

[Schlussteil (wie Zwischenteil)]
              G                   D
Und du sagst weit, was ist schon weit
              Em                                    C
Was ist schon weit, wenn man nicht weiß, wohin man will
             G                   D
Und ich sag Zeit, was ist schon Zeit
               Em                               C
Was ist schon Zeit, wenn keine Zeit ist fürs Gefühl
            G               D  
Du sagst Gefühl, was ist Gefühl
            Em                                       C
Wenn es von hier reicht bis zum Mond und doch nicht reicht.
             G                  D
Und ich sag Herz, was will das Herz
            Em                               C
Wenn es so leise geht, dass man es nicht versteht

[Gitarren-Herzschlag]
    1 + 2 + 3 + 4 + 1 + 2 + 3 + 4 + 1 + 2 + 3 + 4 + 1 + 2 + 3 + 4
e|---------------------------------------------------------------------|
h|---------------------------------------------------------------------|
g|---------------------------------------------------------------------|
D|---------------------------------------------------------------------|
A|---------------------------------------------------------------------|
E|-(8)-(8)---------(8)-(8)---------(8)-(8)---------(8)-(8)-------------|

()= gedämpft



****************   Zupfmuster // Tabs   ***************


[Vorspiel = Strophe]
   Em                      B                       E7                      A
   1 + 2 + 3 + 1 + 2 + 3 + 1 + 2 + 3 + 1 + 2 + 3 + 1 + 2 + 3 + 1 + 2 + 3 + 1 + 2 + 3 + 1 + 2 + 3   
e|-----7---7-------7---7-------7---7-------7---7-------7---7-------7---7-------5---5-------5---5-|
h|-----8---8-------8---8-------7---7-------7---7-------9---9-------9---9-------5---5-------5---5-|
g|-----9---9-------9---9-------8---8-------8---8-------7---7-------7---7-------6---6-------6---6-|
D|-------------9-----------------------------------------------9---------------------------------|
A|-7-----------------------------------9-----------7-----------------------------------7---------|
E|-------------------------7-----------------------------------------------5---------------------|

   A                       Em                      B                       Em
   1 + 2 + 3 + 1 + 2 + 3 + 1 + 2 + 3 + 1 + 2 + 3 + 1 + 2 + 3 + 1 + 2 + 3 + 1 + 2 + 3 + 1 + 2 + 3   
e|-----5---5-------5---5-------7---7-------7---7-------7---7-------7---7-------7---7-------7---7-|
h|-----5---5-------5---5-------8---8-------8---8-------7---7-------7---7-------8---8-------8---8-|
g|-----6---6-------6---6-------9---9-------9---9-------8---8-------8---8-------9---9-------9---9-|
D|-------------------------------------9-----------------------------------------------9---------|
A|-------------7-----------7-----------------------------------9-----------7---------------------|
E|-5-----------------------------------------------7---------------------------------------------|

[Alternatives Ende dazu]
   A                       Em                      B                       Em
   1 + 2 + 3 + 1 + 2 + 3 + 1 + 2 + 3 + 1 + 2 + 3 + 1 + 2 + 3 + 1 + 2 + 3 + 1 + 2 + 3 + 1 + 2 + 3   
e|-------------------------------------------------------------------------------------7---------|
h|-------------------------------------------------------------------------------------8---------|
g|-***************************Wiederholen wie oben*************************------------9---------|
D|-------------------------------------------------------------------------------------9---------|
A|-------------------------------------------------------------------------7---------------------|
E|-----------------------------------------------------------------------------------------------|

[Zwischenteil]

   G                        D                       Em                      C
   1  + 2 + 3 + 1 + 2 + 3 + 1 + 2 + 3 + 1 + 2 + 3 + 1 + 2 + 3 + 1 + 2 + 3 + 1 + 2 + 3 + 1 + 2 + 3   
e|------7---7-------7---7-------5---5-------5-----------7---7-------7---7-------8---8-------8---8-|
h|------8---8-------8---8-------7---7-------7-----------8---8-------8---8-------8---8-------8---8-|
g|------7---7-------7---7-------7---7-------7-----------9---9-------9---9-------9---9-------9---9-|  x2
D|--------------9-----------------------7-----------------------9---------------------------------|
A|-10-----------------------5-------------------6---7-----------------------------------10--------|
E|--------------------------------------------------------------------------8---------------------|


[Zwischenteil meistens beenden mit]

   C                         B                       B
   1  + 2 + 3 + 1  + 2 + 3 + 1 + 2 + 3 + 1 + 2 + 3 + 1 + 2 + 3 + 1 + 2 + 3 +   
e|------8---8--------8---8-------7---7-------7---7---------------------------|
h|------8---8--------8---8-------7---7-------7---7---------------------------|
g|------9---9--------9---9-------8---8-------8---8---------------------------|
D|-10------------------------------------------------9-----------------------|
A|--------------10-----------------------9-----------------------------------|
E|---------------------------7-----------------------------------------------|
 

************************************

| h    Hammer-on
| (n)  Ghost note 

************************************



Das Songbook für das komplette Album "Musen und Matrosen" von Sarah Lesch: https://www.sarahlesch.de/shop/

            
            
Suggest correction
Creating personal tab
Creating personal tab
You can edit any tab online and save it as your Personal.

You can edit, replace or remove any tab part or add personal notes – all changes will be seen only by you.

Personal tabs can be accessed anytime from any device, even offline.
Learn more »
Give kudos to tab author, rate the tab!
1 2 3 4 5
comments
print report bad tab
guest
You may want to rate the tab now too:
select rating
Wanna post a correction for this tab? Suggest correction