Oops, an error
Loading. Please wait.

Sweet Surrender bass

223 views 3 this week
no commentswrite comment
1 2 3 4 5
x 7
add to favorites
×
Save as Personal and add changes to this tab that will be seen only by you. Learn more ›
×
You can save this tab as Personal to edit and correct it or add notes. All changes will be seen only by you. Learn more »
launch autoscroll
font size
0
reset
guitar tuner
edit
Autoscroll
slow
fast
+/-
esc
set tempo
stop
Author
Difficulty
--------------------------------------------------------------------------
                            Artist - Sarah McLachlan
                          ****************************
                             Song - Sweet Surrender   
                            ************************
                            Album - Surfacing (1997)
                           **************************
                              Tabbed By - Ayreon77
                             **********************
--------------------------------------------------------------------------
Tuning = Standard             



00:08
VERSE 1
********
It doesn’t mean much, it doesn’t mean anything at all.      The life I’ve left behind me, is a cold room.
G|---------------------|-------------|-------|--s----|-----|---------------|-------------|---7-----|
D|--------------s------|------s------|-------|-7\9-7-|-----|-----7---------|---9---------|-7---7---|
A|---------9-9-9\-4--0-|-9-9-9\-4--0-|-5-5-5-|-------|-0-0-|-7-9---9-7-7-7-|-7---7-9-9-9-|-------5-|
E|---------------------|-------------|-------|-------|-----|---------------|-------------|---------|

I’ve crossed the last line, from where I can’t return. Where every step I took in faith betrayed me,
G|---------------------------|-------------|-------|--s----|-----|---------------|-------------|---7-----|
D|--------------------s------|------s------|-------|-7\9-7-|-----|-----7---------|---9---------|-7---7---|
A|---------------9-9-9\-4--0-|-9-9-9\-4--0-|-5-5-5-|-------|-0-0-|-7-9---9-7-7-7-|-7---7-9-9-9-|-------5-|
E|---------------------------|-------------|-------|-------|-----|---------------|-------------|---------|

                    And led      me   from      my home.
G|--s----|---------|-----------|-----|---------|-7---------|-----|-------|-------|
D|-7\9-7-|-----7---|-----------|-9---|-------7-|---7-------|-7-7-|-------|-7-7-7-|
A|-------|-7-9---9-|-----7-7-7-|---7-|-9-9-9---|-----5-5-5-|-----|-5-5-5-|-------|
E|-------|---------|-----------|-----|---------|-----------|-----|-------|-------|


----------------------------
00:51
CHORUS
*******
  Sweet-----------------------------------------surrender,               is all that I have, 
G|-------------|----------------|--------------|----------------|----------|--s----------|---------|
D|-------------|----------------|---------s----|----------------|----------|-7\9-7-------|---------|
A|-7-7-7-------|-5-5-5---h--5---|--------7\9-7-|-9-9-9---h--7---|----------|-------7-7-7-|--h--7---|
E|--------7--7-|--------5-7---7-|-5-5-5--------|--------7-9---9-|-10-10-10-|-------------|-7-9---9-|

  to give.
G|--------------|-------|-------|
D|---------s----|-------|-------|
A|--------7\9-7-|-------|-7-9-7-|
E|-5-5-5--------|-5-5-5-|-------|


----------------------------
01:08
VERSE 2
********
You take me in,                        no questions asked. You strip away the ugliness that surrounds me.
G|----------------------|-------------|-------|--s----|-------|---------------|-----------|---7---------|
D|---------------s------|------s------|-------|-7\9-7-|-------|-----7---------|-9---------|-7---7-------|
A|----------9-9-9\-4--0-|-9-9-9\-4--0-|-5-5-5-|-------|-0-0-0-|-7-9---9-7-7-7-|---7-9-9-9-|-------5-5-5-|
E|----------------------|-------------|-------|-------|-------|---------------|-----------|-------------|


G|--s----------|------|
D|-7\9-7-------|-9--7-|
A|-------5-5-5-|------|
E|-------------|------|

Are you an angel?                        Am I already that gone   I only hope that I won’t disappoint you
G|------------------------|----------------|-------|--s----|-----|---------------|-----------|---7---------|
D|------------------------|----------------|-------|-7\9-7-|-----|--h--7---------|-9---------|-7---7-------|
A|---------9-9-9-9-9-4--0-|-9-9-9-9-9-4--0-|-5-5-5-|-------|-0~~-|-7-9---9-7-7-7-|---7-9-9-9-|-------5-5-5-|
E|------------------------|----------------|-------|-------|-----|---------------|-----------|-------------|

                          When I’m down   here  on    my   knees
G|--s----------|---------|---------------|-----|---------|-7---------|-----|-------|-----|
D|-7\9-7-------|--h--7---|---------------|-9---|-------7-|---7-------|-7-7-|-------|-7-7-|
A|-------------|-7-9---9-|---------7-7-7-|---7-|-9-9-9---|-----5-5-5-|-----|-5-5-5-|-----|
E|-------5-5-5-|---------|---------------|-----|---------|-----------|-----|-------|-----|


----------------------------
01:50
CHORUS
*******
  Sweet-----------------------------------------surrender,               is all that I have, 
G|-------------|----------------|--------------|----------------|----------|--s----------|---------|
D|-------------|----------------|---------s----|----------------|----------|-7\9-7-------|---------|
A|-7-7-7-------|-5-5-5---h--5---|--------7\9-7-|-9-9-9---h--7---|----------|-------7-7-7-|--h--7---|
E|--------7--7-|--------5-7---7-|-5-5-5--------|--------7-9---9-|-10-10-10-|-------------|-7-9---9-|

  to give. ahhhhhhhhhhhhhh
G|-------------|-------------|
D|------s------|------s------|
A|-9-9-9\-4--0-|-9-9-9\-4--0-|
E|-------------|-------------|

  Sweet-----------------------------------------surrender,               is all that I have, 
G|-------------|----------------|--------------|----------------|----------|--s----------|---------|
D|-------------|----------------|---------s----|----------------|----------|-7\9-7-------|---------|
A|-7-7-7-------|-5-5-5---h--5---|--------7\9-7-|-9-9-9---h--7---|----------|-------7-7-7-|--h--7---|
E|--------7--7-|--------5-7---7-|-5-5-5--------|--------7-9---9-|-10-10-10-|-------------|-7-9---9-|

  to give.
G|--------------|-------|-----|
D|---------s----|-------|--s--|
A|--------7\9-7-|-------|-7\9-|
E|-5-5-5--------|-5-5-5-|-----|


----------------------------
02:24
BRIDGE
*******
And I don’t understand        How the touch of your hand           I would be the one to fall  
G|----------------|----------|-------------|----------------|-------------|------------|-------------|
D|----------------|----------|--------9--9-|----------------|-------------|------------|--------7--7-|
A|-----------9--9-|--------9-|-7-7-7-------|-7-7-7------7---|--------7--7-|--------7---|-5-5-5-------|
E|----7-7-7-------|-7-7-7----|-------------|--------7-9---9-|-5-5-5-------|-5-5-5----5-|-------------|

            I miss the little things                                   I miss  everything,
G|-------------|-------------|----------------|-------------|-----------------|-------------|
D|--------7----|-------------|----------------|--------9--9-|-----------------|-------------|
A|-5-5-5-----5-|--------9--7-|------------7---|-7-7-7-------|-7-7-7------7----|--------9--9-|
E|-------------|-7-7-7-------|-7-7-7--7-9---9-|-------------|--------7-9---9--|-7-7-7-------|

  about you                              It doesn’t mean much. It doesn’t mean anything at all
G|----------------|-------------|------------------|-----------------------------------------|
D|----------------|--------9--9-|------------------|-------------------------s---------------|
A|------------7---|-7-7-7-------|-7-7-7------7---9-|------------------------9\-5-------------|
E|-7-7-7--7-9---9-|-------------|--------7-9---9---|---------------------------------------5-|

     The life I left behind me,  Is a cold room
G|-----------------------------------------------|---------|
D|-----------------------------------------------|---------|
A|-7-------------------9-------------------------|-----7---|
E|------------------------------------10---------|-7-9---9-|


----------------------------
03:15
CHORUS
*******
  Sweet-----------------------------------------surrender,               is all that I have, 
G|-------------|----------------|--------------|----------------|----------|--s----------|---------|
D|-------------|----------------|---------s----|----------------|----------|-7\9-7-------|---------|
A|-7-7-7-------|-5-5-5---h--5---|--------7\9-7-|-9-9-9---h--7---|----------|-------7-7-7-|--h--7---|
E|--------7--7-|--------5-7---7-|-5-5-5--------|--------7-9---9-|-10-10-10-|-------------|-7-9---9-|

  to give. ahhhhhhhhhhhhhh
G|-------------|-------------|
D|------s------|------s------|
A|-9-9-9\-4--0-|-9-9-9\-4--0-|
E|-------------|-------------|

  Sweet-----------------------------------------surrender,               is all that I have,  to give.
G|-------------|----------------|--------------|----------------|----------|--s----------|---------|-------|
D|-------------|----------------|---------s----|----------------|----------|-7\9-7-------|---------|-------|
A|-7-7-7-------|-5-5-5---h--5---|--------7\9-7-|-9-9-9---h--7---|----------|-------7-7-7-|--h--7---|-------|
E|--------7--7-|--------5-7---7-|-5-5-5--------|--------7-9---9-|-10-10-10-|-------------|-7-9---9-|-5~~~~-|



ENJOY..........

            
            
Suggest correction
Creating personal tab
Creating personal tab
You can edit any tab online and save it as your Personal.

You can edit, replace or remove any tab part or add personal notes – all changes will be seen only by you.

Personal tabs can be accessed anytime from any device, even offline.
Learn more »
comments
print report bad tab
guest
You may want to rate the tab now too:
select rating
Wanna post a correction for this tab? Suggest correction