Oops, an error
Loading. Please wait.

Untitled Tab

version 1
version 1

Whole song

3,065 views 3 this week
no commentswrite comment
1 2 3 4 5
excellent!
x 5
add to favorites
launch autoscroll
font size
0
reset
how to read this tab
guitar tuner
Autoscroll
slow
fast
+/-
esc
set tempo
stop
Help us to improve Ultimate-Guitar.com Take our survey!
×
Author
Difficulty
novice
here's the basic tab to get you started. full song with solo coming soon. i tabbed this 
my guitar so there may be a few mistakes. first tab so plz rate

Intro
   1       2       3       4          1       2       3       4
E--4----4--4-----x-x-x--9—-9-|9--x-x--7----7--7-----x-x-x--7--7-7---|
B--5----5--5-----x-x-x--10-10|10-x-x--9----9--9-----x-x-x--9--9-9h10|
G--6----6--6-----x-x-x--11-11|11-x-x--9----9--9-----x-x-x--9--9-9---|
D--6----6--6-----x-x-x--11-11|11-x-x--9----9--9-----x-x-x--9--9-9---|
A--4----4--4-----x-x-x--9—-9-|9--x-x--7----7--7-----x-x-x--7--7-7---|
E--4----4--4-----x-x-x--9—-9-|9--x-x----------------x-x-x-----------|
                 \   /                              \   /
           Played as triplets

Verse [0:18]

   1      2       3       4       1      2      3       4
E--4---4--4----4---4--4---9—-9-|--7---7--7----7---7--7---7-7---|
B--5---5--5----5---5--5---10-10|--9---9--9----9---9—-9---9-9h10|
G--6---6--6----6---6--6---11-11|--9---9--9----9---9--9---9-9---|
D--6---6--6----6---6--6---11-11|--9---9--9----9---9--9---9-9---|
A--4---4--4----4---4--4---9—-9-|--7---7--7----7---7--7---9-9---|
E--4---4--4----4---4--4---9—-9-|-------------------------------|

Prechorus [0:34]

   1     2     3     4      1     2     3     4
E------------------------|--------------------------|
B------------------------|--------------------------|
G------------------------|--------------------------|
D--6--6--6—-6--6--6--6--6|--8--8--8--8--8--8--8--8--|
A--6--6--6--6--6--6--6--6|--8--8--8--8--8--8--8--8--|
E--4--4--4--4--4—-4--4--4|--6--6--6--6--6--6--6--6--|

End Prechorus [0:38]

Verse
   1           2           3           4
E-------------------------------------------|
B-------------------------------------------|
G-----------------------------9---11-11-11--|
D--9-11-11-11-11---11-11---11---------------|
A-------------------------------------------|
E-------------------------------------------|

   1           2           3           4
E-------------------------------------------|
B-------------------------------------------|
G-----------------------------9—-11b12b11---|
D--9-11-11-11-11---11-11---11---------------|
A-------------------------------------------|
E-------------------------------------------|

   1           2           3           4
E--------------------------------------10---|
B-------------------------------------------|
G-----------------------------9—-11b12------|
D--9-11-11-11-11---11-11---11---------------|
A-------------------------------------------|
E-------------------------------------------|

Repeat 3x

   1     2     3     4      1     2     3     4
E------------------------|--4--4--4--4--4-----------|
B------------------------|--4--4--4--4--4-----------|
G------------------------|--5--5--5--5--5-----------|
D--7--7--7—-7--7--7--7--7|--6--6--6--6--6-----------|
A--7--7--7--7--7--7--7--7|--6--6--6--6--6-----------|
E--5--5--5--5--5—-5--5--5|--4--4--4--4--4-----------|

here's the link to sarasine website:

http://www.myspace.com/sarasine

keep jammin guys
Suggest correction
comments
print report bad tab
guest
You may want to rate the tab now too:
select rating
Please do not post tabs as comments. Select "correction" instead!