Oops, an error
Loading. Please wait.

Con Mano Izquierda Tab

154 views 1 this week
no commentswrite comment
1 2 3 4 5
3 more votes to show rating
add to favorites
launch autoscroll
font size
0
reset
how to read this tab
guitar tuner
Autoscroll
slow
fast
+/-
esc
set tempo
stop
Help us to improve Ultimate-Guitar.com Take our survey!
×
Riff 1
e|---------------------------------------------------------------------------|
B|---------------------------------------------------------------------------|
G|-------------10-------------11-9-------------11----------9-----------------|
D|-------------8--------------9--8-------------9-----------8---------7-9-10--|
A|--7-7-7-7-7------7-7-7-7-7--------7-7-7-7-7-------7-7-7-----7-7-7--5-7-8---|
E|---------------------------------------------------------------------------|

Riff 2
e|----------------------------------------------------------------------------------------------|
B|----------------------------------------------------------------------------------------------|
G|----------------------------------------------------------------------------------------------|
D|---------------------------------------------------------------------------------------7-9-10-|
A|---------------------------------------------------------------------------------------5-7-8--|
E|-0---0-0-0-0-0---0-0-0-0-0---0-0-0-0-0---0-0-0-0-0---0-0-0-0-0---0-0-0-0-0---0-0-0-0-0--------|

Riff 3
e|----------------------------------------------------------------------------------------------|
B|----------------------------------------------------------------------------------------------|
G|----------------------------------------------------------------------------------------------|
D|---------------------------------------------------------------------------------------7-9-10-|
A|---------------------------------------------------------------------------------------5-7-8--|
E|-0-0-0-0-0-0-0-0-0-0-0-0-0-0-0-0-0-0-0-0-0-0-0-0-0-0-0-0-0-0-0-0-0-0-0-0-0-0-0-0-0-0-0--------|

Riff 4
e|----------------------------------------------------------------|
B|----------------------------------------------------------------|
G|-4-------------------4---2---------------4-------------------6--|
D|-4---4---------------4---2---------------4---4---------------6--|
A|-2---4-------0---2---2---0-------0---2---2---4-------0---2---4--|
E|-----2---3-------------------3---------------2---3--------------|

Riff 5
e|-----------------------------------------------------------------------------------------------|
B|-------4-------3-------4-----------------------------------------------------------------------|
G|-------3-------2-------3-----------------------------------------------------------------------|
D|---5---1---3---0---5---1---3-------------------------------------------------------------------|
A|---5-------3---0---5-------3---5-7-7-7-7-7-7-7-5-7-7-7-7-7-7-7-5-7-7-7-5-7-7-7-5-7-7-7-7-7-7-7-|
E|---3-------1-------3-------1-------------------------------------------------------------------|
                                 |-----------------Esta parte se toca muy rápido----------------|
Riff 6
e|---------------------------------------|
B|---------------------------------------|
G|-----------------------6?--6---6---6---|
D|-----------------------6?--6---6---6---|
A|---5-7-8-2-4-5-0-2-4---4?--4---4---4---|
E|---------------------------------------|

Al principio se raspa con la púa (uñeta) la cuerda 6º y después la 5ª

Intro:
Riff 1 varias veces

Riff 2
De vuelta a casa, esta vez no resultó
vimos romper las cadenas.

Riff 3
Hoy el verdugo se tragó su vocación,
la muerte estuvo muy cerca.

Riff 4
Quiso gritar y fracasó,
la realidad lo sentenció.
Rabia y dolor en su corazón.
Un crimen que no cometió,
cinco años en el corredor.
Casi al final pudo respirar.

Riff 1

Riff 2
Él es hispano, si eres negro aún peor.
Tu vida es su recompensa.

Riff 3
Como las hienas en la Roma de Nerón,
quien va a morir os desprecia.

Riff 4
Segunda vez, vuelta a empezar.
Alguien compró su salvación,
no hay show mejor en televisión.
Hay que buscar, encontrarán a quien culpar.
Y asesinar. Les dio poder esta sociedad.

(Raspar las cuerdas como al principio)

Riff 5
No debes llorar,
enseña tu orgullo, solo no estás.
Vamos a más, no hay que callar.
Con mano izquierda,
lo nuestro es luchar.

Riff 1

Riff 6

Durante la primera parte del solo de Jerónimo que no lo he sacado por dos cosas:

-1- El wammy de mi pedalera solo sube una octava.
-2- Aunque tuviese un pedal wammy mejor esta bastante difícil para mi

La otra guitarra se queda tocando E|-0-| un buen rato después toca el riff 4 y vuelve a raspar las cuerdas como al principio,
luego toca el riff 5, el riff 1, el riff 6 y termina raspando las cuerdas otra vez.

Dudas, sugerencias, correcciones, etc. Avisarme por mail.
                       
Suggest correction
Give kudos to tab author, rate the tab!
1 2 3 4 5
comments
print report bad tab
guest
You may want to rate the tab now too:
select rating
Wanna post a correction for this tab? Suggest correction