Oops, an error
Loading. Please wait.

Lejos De Ti Tab

version 1
version 1

Whole song

Interactive

274 views 1 this week
no commentswrite comment
1 2 3 4 5
3 more votes to show rating
add to favorites
launch autoscroll
font size
0
reset
how to read this tab
guitar tuner
Autoscroll
slow
fast
+/-
esc
set tempo
stop
Este es el solo. Yo creo que las notas son bastante correctas,
desde luego la zona de tocarlas es la misma que la de la canción,
lo único que a lo mejor me he comido es alguna en los picados,
o algunas de palm mute, hammer on o slide, lo demás suena bastante
bien


-----------------------------------------------
------------------------------------12-11-12-14
-----------------11-15-------------------------
-----------13-11-------13----------------------
--14-11-11-----------------14-11-11------------
-----------------------------------------------

-11-----12-11----11----------------------
--------------------14----14-12----12-11-
-----13-------13-------13-------13-------
-----------------------------------------
-----------------------------------------
-----------------------------------------

---------------------------------12-11----
--------------------12-14-12--------------
--13-15-13--------------------13-------13-
-----------13-16-13-----------------------
------------------------------------------
------------------------------------------

11-----------------------------------------
---14----14-12----12-11--------------------
------13-------13-------13-15-13-----------
---------------------------------13-16-13--
-------------------------------------------
-------------------------------------------

--------------------------------------------
--------------------------------------------
--11-13-------------------------------------
--------11-13-------------------------------
--------------11-13-9-11--------------------
-------------------------10-11--11-11-12-12-

--------------------------------------------
--------------------------------------------
--------------------------------------------
--------------------------------------------
--------11-11-------------------------11-11-
--14-14-------14-14-12-12-11-11-9-11--------

-----------------------------------------------
-----------------------------------------12----
----------------13-13-13-13-----13-13-13-------
-----------11---------------13--------------13-
--13-13-14-------------------------------------
-----------------------------------------------

-------------------------------------------------
----------16-16-16-16-15----------------------16-
--13-13------------------16-13---------13-13-----
--------------------------------13--13-----------
-------------------------------------------------
-------------------------------------------------
Suggest correction
Give kudos to tab author, rate the tab!
1 2 3 4 5
comments
print report bad tab
guest
You may want to rate the tab now too:
select rating
Wanna post a correction for this tab? Suggest correction