Oops, an error
Loading. Please wait.

Lejos De Ti Tab

version 2
version 2

Whole song

Interactive

111 views 1 this week
no commentswrite comment
1 2 3 4 5
3 more votes to show rating
add to favorites
launch autoscroll
font size
0
reset
how to read this tab
guitar tuner
Autoscroll
slow
fast
+/-
esc
set tempo
stop
Help us to improve Ultimate-Guitar.com Take our survey!
×
Este el solo de este buen tema, espero que les sirva como una buena guía.


   p - Pull off
   h - Hammer on
   s - Slide
   v ? Vibrato
   b ? Bend
  () ? Armónico Artificial


----------------------------------------------------------
----------------------------------------------------------
--------------------------------11h15---------------------
--------------------11b-11v-----------13v-----------------
--9--14p11-11v---------------------------------14p11--11v-
----------------------------------------------------------


----------------------------------------------------------
---------------------------------17p16----16p14-----14p12-
---------------------------13-13-------13--------11-------
--16-15v---16-18-20v--------------------------------------
----------------------------------------------------------
----------------------------------------------------------


----------------------------------------------------------
---12p11---11p9-------------12h14-11s12v------------17p16-
-9-------8------8h11-7s8v---------------------13-13-------
----------------------------------------------------------
----------------------------------------------------------
----------------------------------------------------------


----------------------------------------------------------
----16p14----14p12---12p11---11p9-------------------------
-13-------11-------9-------8------8h11-7s8v----------11h13
--------------------------------------------------13------
----------------------------------------------------------
----------------------------------------------------------


----------------------------------------------------------
----------------------------------------------------------
-----------------------------------------8-8-9-9-11-11-13-
-11h13----------------------------------------------------
-------11h13-9h11-----------------------------------------
------------------9h11v-----------------------------------


----------------------------------------------------------
----------------------------------------------------------
-13-11-11-9-9-8-8-6-6s8v----------------------------------
---------------------------4h6-6v--8-8-9-11v--------------
----------------------------------------------------------
----------------------------------------------------------


-16--16--16-16--16-----16--16--16-19--16---16--16--16-16--
-16--16--16-16--16-----16--16--16-16--16---16--16--16-16--
----------------------------------------------------------
----------------------------------------------------------
----------------------------------------------------------
----------------------------------------------------------


-11--11--11-------------------------------9-11p9----15s---
-14b-14b-14b-14b14-12----------------12p9-----------------
----------------------13v---6s8-11p8----------------------
----------------------------------------------------------
----------------------------------------------------------
----------------------------------------------------------


-16vv-16vv?(15)-16vv--------------------------------------
----------------------------------------------------------
----------------------------------------------------------
----------------------------------------------------------
----------------------------------------------------------
----------------------------------------------------------
Suggest correction
Give kudos to tab author, rate the tab!
1 2 3 4 5
comments
print report bad tab
guest
You may want to rate the tab now too:
select rating
Wanna post a correction for this tab? Suggest correction