Oops, an error
Loading. Please wait.

Luna Llena Tab

225 views 1 this week
no commentswrite comment
1 2 3 4 5
3 more votes to show rating
add to favorites
launch autoscroll
font size
0
reset
how to read this tab
guitar tuner
Autoscroll
slow
fast
+/-
esc
set tempo
stop
Help us to improve Ultimate-Guitar.com Take our survey!
×
Esta es la versión acústica que tocaron en el vuelo del fenix y en
sus conciertos en acústico.
Como siempre la guitarra afinada en D# espero que os guste ya que es
mi primera transcripcion. ;) Saludooos !

(INTRO)

e|----------------------------------------10-12------|
B|--12-12-12----12-13---12-12-12---12-13-------------|
G|---------------------------------------------------|
D|---------------------------------------------------|            (x2)
A|---------------------------------------------------|
E|---------------------------------------------------|


e|------12-12-12---12-13---10--10-10---10-12---------
B|--10-----------------------------------------------
G|---------------------------------------------------
D|---------------------------------------------------
A|---------------------------------------------------
E|---------------------------------------------------


e|-----------------------10-------------------------------------|
B|----13-13-13---13----------12-12-12---10----------------------|
G|--------------------------------------------------------------|
D|--------------------------------------------------------------|
A|--------------------------------------------------------------|
E|--------------------------------------------------------------|

LAm
Tu quieres destronarme,
yo intento olvidarte,
REm
golpeado por la ira,
escarmentado por la sangre.

LAm
Quieres envenenarme,
no dejas de engañarme,
REm
mentiras que desdecían,
confianza al alejarme.

REm                           LAm
Cuando no estas, yo vuelvo a respirar,
LAm
y esta herida que no cura el tiempo,
REm                       LAm
cuando te vas comienzo a caminar,
LAm
no me duermas siempre con tus cuentos,
FA          REm            LAm
porque esta vez despertare!!!

LAm
Deja de mentir, deja de engañar,
                               REm
nunca mas volveré a creer en tu luna llena,
                          LAm
deja de llorar esta vez  en soledad,
LAm
déjame vivir déjame soñar,
                                 REm
hoy será cuando acabará toda esta condena,
                    LAm
otra vez la soledad y ver...

LAm
Hoy quiero desgarrarte,
MI odio enviarte,
obviarte en mis sentidos,
desnudarte sin mirarte.
Jamás podrás besarme,
ni en mi pecho arroparte,
quiero que estés tan lejos
que no puedas olvidarme.


REm                          LAm
Cuando no estas, yo vuelvo a respirar,
REm                       LAm
cuando te vas comienzo a caminar,
LAm
no me duermas siempre con tus cuentos,
FA          REm
porque esta vez despertare!!!


(Solo)


e|------------------------------------5-5-5---5-5-5-----
B|---3----5-5-5--6-6-6--5-5-5--8-8-8--------------------
G|------------------------------------------------------
D|------------------------------------------------------
A|------------------------------------------------------
E|------------------------------------------------------


e|----------------------------------------------------------------|
B|---5-5-5-----------5-6-5--------------5-6-5--------------5/6/5--|
G|--------------5-7--------------7-5-7--------------7-5-7---------|  (x2)
D|----------------------------------------------------------------|
A|----------------------------------------------------------------|
E|----------------------------------------------------------------|


e|----------------------------------------------------------
B|----------------------------------------------------------
G|----5-4------7-5------9-7------10-9----------14-14-12-14--
D|--------5--------7--------9---------10--------------------
A|----------------------------------------------------------
E|----------------------------------------------------------


e|----------------------------------------------------------------|
B|--10-12-7-9------5-4-2-4----------------------------------------|
G|----------------------------------------------------------------|
D|----------------------------------------------------------------|    (x2)
A|----------------------------------------------------------------|
E|----------------------------------------------------------------|


e|----12-13-12-13-12-13-12-13-12-13-12-13-12-13-
B|----------------------------------------------
G|----------------------------------------------
D|----------------------------------------------
A|----------------------------------------------
E|----------------------------------------------


e|--10-12-10-12-10-12-10-12--8-10-8-10-8-10-----
B|----------------------------------------------
G|----------------------------------------------
D|----------------------------------------------
A|----------------------------------------------
E|----------------------------------------------


e|---7-8-7-8-7-8/5------------------------|
B|----------------------------------------|
G|----------------------------------------|
D|----------------------------------------|
A|----------------------------------------|
E|----------------------------------------|


LAm
Deja de mentir, deja de engañar,
                                REm
nunca mas volveré a creer en tu luna llena,

LAm
déjame vivir déjame soñar,
                                  REm
hoy será cuando acabará toda esta condena,


e|----------------------------------------10-12--|
B|--12-12-12----12-13---12-12-12---12-13---------|
G|-----------------------------------------------|
D|---------------------------------------------- |            (x2)
A|-----------------------------------------------|
E|-----------------------------------------------|


e|---------12-12-12---12-13---10--10-10---10-12------
B|--10-----------------------------------------------
G|---------------------------------------------------
D|---------------------------------------------------
A|---------------------------------------------------
E|---------------------------------------------------


e|-----------------------10------------------------|
B|----13-13-13---13----------12-12-12---10---------|
G|-------------------------------------------------|
D|-------------------------------------------------|
A|-------------------------------------------------|
E|-------------------------------------------------|


     LAm
e|----5------|
B|----5------|
G|----5------|
D|----7------|
A|----7------|
E|----5------|


Dedicada a todos los seguidores de Saratoga
 Y a los que suben sus canciones a 

EmiQ
Suggest correction
Give kudos to tab author, rate the tab!
1 2 3 4 5
comments
print report bad tab
guest
You may want to rate the tab now too:
select rating
Wanna post a correction for this tab? Suggest correction