Oops, an error
Loading. Please wait.

Sigues Estando (En Mi Vida) Tab

version 2
version 2

Whole song

132 views 3 this week
no commentswrite comment
1 2 3 4 5
3 more votes to show rating
add to favorites
launch autoscroll
font size
0
reset
how to read this tab
guitar tuner
×
Best way to learn
"Sigues Estando (en Mi Vida)"
Autoscroll
slow
fast
+/-
esc
set tempo
stop
3:09

Eb|-----------------------------------------|
Bb|-----------------------------------------|
Gb|-----------------------------------------|
Db|-------2-4-------4-5-------5-7-------7-9-|
Ab|-2-2-2-----2-2-2-----2-2-2-----2-2-2-----|
Eb|-----------------------------------------|

Rodeando tu Vida


3:12

Eb|-----------------------------------------|
Bb|-----------------------------------------|
Gb|-----------------------------------------|
Db|-------2-4-------4-5-------5-7-------7-9-|
Ab|-----------------------------------------|
Eb|-0-0-0-----0-0-0-----0-0-0-----0-0-0-----|

En mi vida


3:17

Eb|-----------------------------------------|
Bb|-----------------------------------------|
Gb|-----------------------------------------|
Db|-------2-4-------4-5-------5-7-------7-9-|
Ab|-2-2-2-----2-2-2-----2-2-2-----2-2-2-----|
Eb|-----------------------------------------|

Sueños de libertad


3:21

Eb|-----------------------------------------|
Bb|-----------------------------------------|
Gb|-----------------------------------------|
Db|-------2-4-------4-5-------5-7-------7-9-|
Ab|-----------------------------------------|
Eb|-0-0-0-----0-0-0-----0-0-0-----0-0-0-----|

En mi vida


3:25

Eb|-----------------------------------------|
Bb|-----------------------------------------|
Gb|-----------------------------------------|
Db|-------2-4-------4-5-------5-7-------7-9-|
Ab|-2-2-2-----2-2-2-----2-2-2-----2-2-2-----|
Eb|-----------------------------------------|

Tu alma y la mía


3:29

Eb|-----------------------------------------|
Bb|-----------------------------------------|
Gb|-----------------------------------------|
Db|-------2-4-------4-5-------5-7-------7-9-|
Ab|-----------------------------------------|
Eb|-0-0-0-----0-0-0-----0-0-0-----0-0-0-----|

En tu mirar


3:33

Eb|-----------------------------------------|
Bb|-----------------------------------------|
Gb|-----------------------------------------|
Db|-------2-4-------4-5-------5-7-------7-9-|
Ab|-2-2-2-----2-2-2-----2-2-2-----2-2-2-----|
Eb|-----------------------------------------|

No llores mas


3:37

Eb|-----------------------------------------|
Bb|-----------------------------------------|
Gb|-----------------------------------------|
Db|-------2-4-------4-5-------5-7-------7-9-|
Ab|-----------------------------------------|
Eb|-0-0-0-----0-0-0-----0-0-0-----0-0-0-----|

Lejos de aquí


3:41

Eb|-----------------------------------------|
Bb|-----------------------------------------|
Gb|-----------------------------------------|
Db|-------2-4-------4-5-------5-7-------7-9-|
Ab|-2-2-2-----2-2-2-----2-2-2-----2-2-2-----|
Eb|-----------------------------------------|
Suggest correction
Give kudos to tab author, rate the tab!
1 2 3 4 5
comments
print report bad tab
guest
You may want to rate the tab now too:
select rating
Wanna post a correction for this tab? Suggest correction