Oops, an error
Loading. Please wait.

Oko Moje Glave Bass Tab

290 views 1 this week
no commentswrite comment
1 2 3 4 5
3 more votes to show rating
add to favorites
launch autoscroll
font size
0
reset
guitar tuner
×
Best way to learn
"Oko Moje Glave"
Autoscroll
slow
fast
+/-
esc
set tempo
stop
Author
Difficulty
  follow
intermediate
G|-------------------------------------------|
D|-------------------------------------------|
A|-----------------5----------------5--------|
E|--7--7--5--5--7-------7--5--5--7-----7--5--| x3

G|-------------------------------------------|
D|--------------------9-9-9-9-7--------------|
A|-----------------5------------9-8-7--------|
E|--7--7--5--5--7----------------------------| x1

Oko moje glave ....

G|-------------------------------------------|
D|-------------------------------------------|
A|-------------------------------------------|
E|--5~~~~~~~~~~~~~~~---5---------------------|
Suggest correction
Give kudos to tab author, rate the tab!
1 2 3 4 5
comments
print report bad tab
guest
You may want to rate the tab now too:
select rating
Wanna post a correction for this tab? Suggest correction