Oops, an error
Loading. Please wait.

Sarlo Je Nezan Bass Tab

70 views 1 this week
no commentswrite comment
1 2 3 4 5
3 more votes to show rating
add to favorites
launch autoscroll
font size
0
reset
guitar tuner
Autoscroll
slow
fast
+/-
esc
set tempo
stop
Help us to improve Ultimate-Guitar.com Take our survey!
×
Author
Difficulty
intermediate
The rhythm is 3/4

G|-------------------------------------------------------------|
D|-----4-------------------------------4--------5--2--3--4--4--|
A|--2-----1--2---2--5--2--3--4---4--2-----1--2-----------------|
E|-------------------------------------------------------------|

G|----------------------------------------------------------------|
D|-----4-------------------------------4--------5--2--3--4--2-----|
A|--2-----1--2---2--5--2--3--4---4--2-----1--2-----------------5--|
E|----------------------------------------------------------------|

G|-----11----------------------------------11--------12--9--10--11--11b12---|
D|--9-----8--9---9--12--9--10--11--11---9------8--9-------------------------|
A|--------------------------------------------------------------------------|
E|--------------------------------------------------------------------------|

G|-----11----------------------------------11--------12--9--10--11--9-------|
D|--9-----8--9---9--12--9--10--11--11---9------8--9--------------------12---|
A|--------------------------------------------------------------------------|
E|--------------------------------------------------------------------------|

G|--------------------------------------------------------------------------|
D|--------------------------------------------------------------------------|
A|--2--2---5--5---2--2-----------2--2---5--2--5---2--2----------------------|
E|-----------------------3--3-----------------------------3--3-----3--------|
Suggest correction
Give kudos to tab author, rate the tab!
1 2 3 4 5
comments
print report bad tab
guest
You may want to rate the tab now too:
select rating
Wanna post a correction for this tab? Suggest correction