Oops, an error
Loading. Please wait.

Midnight Snow chords

64 views 3 this week
no commentswrite comment
1 2 3 4 5
x 3
add to favorites
×
Save as Personal and add changes to this tab that will be seen only by you. Learn more ›
×
You can save this tab as Personal to edit and correct it or add notes. All changes will be seen only by you. Learn more »
launch autoscroll
font size
0
reset
transpose
0
reset
display chords
guitar tuner
edit
Autoscroll
slow
fast
+/-
esc
set tempo
stop
Author
Difficulty
Strumming
There is no strumming pattern for this song yet. and get +5 IQ
---------------------------------------------------------------------------------------------------------------
                                          Artist - Satellite
                                         ********************
                                         Song - Midnight Snow
                                        **********************
                            Album - A Street Between Sunrise And Sunset (2003)    
                           ****************************************************
                                         Tabbed By - Ayreon77
                                        **********************
---------------------------------------------------------------------------------------------------------------
Tuning = Standard

This is the Neo Prog Group From Poland

INTRO - CLASSICAL GUITAR - RIFF 1
******  *****************  *******
  Am            G                   Am                G
e|----------|----------|-----------|----------|--------------|----------s-|
B|----------|----------|---s-------|----------|--------h--p--|-13-12-10-\-|
G|--------9-|-9-9-10---|-10\12--10-|--------9-|-12-10-9-19-9-|------------|
D|-7-9-10---|--------9-|-----------|-7-9-10---|--------------|------------|
A|----------|----------|-----------|----------|--------------|------------|
E|----------|----------|-----------|----------|--------------|------------|
  
  Am            G               Am                G                              Am
e|----------|----------|-------|----------|--------------|--------|--------|-------|
B|----------|----------|-------|----------|--------h--p--|--------|--------|-------|
G|--------9-|-9-9-10---|-12-10-|--------9-|-12-10-9-19-9-|-10-9-7-|-9-7----|-7-----|
D|-7-9-10---|--------9-|-------|-7-9-10---|--------------|--------|-----10-|---5-7-|
A|----------|----------|-------|----------|--------------|--------|--------|-------|
E|----------|----------|-------|----------|--------------|--------|--------|-------|


-----------------------------------
VERSE 1
********
Am
   White and silent parachutes
     G
With thousand whispers touch the ground
Am
  Glowing silver night patrol
  G
I hear it coming down
Am
  Winter always comes at night
    G
I'm waiting, watching far horizon
Am
  Distant city frozen lights
   G
In silent moon in moonlight haze


-----------------------------------
CHORUS
*******
Am  F        G
I   need You now

When the leaves and colors gone away
Am  F
I   need You now

When a thrill has gone, no more to say
Am  F        G
I   need You now

For a thousand reasons, here, tonight
Am  F        G
I   need You now

Melt the ice in my eyes


-----------------------------------
RIFF 1
*******
  Am            G               Am                G                         Am
e|----------|----------|-------|----------|---------|--------|--------|-------|
B|----------|----------|-------|----------|---------|--------|--------|-------|
G|--------9-|-9-9-10---|-12-10-|--------9-|-12-10-9-|-10-9-7-|-9-7----|-7-----|
D|-7-9-10---|--------9-|-------|-7-9-10---|---------|--------|-----10-|---5-7-|
A|----------|----------|-------|----------|---------|--------|--------|-------|
E|----------|----------|-------|----------|---------|--------|--------|-------|



VERSE 2
********
Am
   Watching clouds that passing by
  G
Entangled in the moonlight halo
Am
  Like the moon absorbing light
       G
You've stolen sunshine glaze
Am
  Left me nothing more than dust
   G
On books we used to read together
Am                         G
  Fire in the fireplace protecting me no more


-----------------------------------
CHORUS
*******
Am  F        G
I   need You now

When the leaves and colors gone away
Am  F
I   need You now

When a thrill has gone, no more to say
Am  F        G
I   need You now

For a thousand reasons, here, tonight
Am  F        G
I   need You now

Melt the ice in my eyes


-----------------------------------
RIFF 1
*******
  Am            G                   Am                G
e|----------|----------|-----------|----------|--------------|----------s-|
B|----------|----------|---s-------|----------|--------h--p--|-13-12-10-\-|
G|--------9-|-9-9-10---|-10\12--10-|--------9-|-12-10-9-19-9-|------------|
D|-7-9-10---|--------9-|-----------|-7-9-10---|--------------|------------|
A|----------|----------|-----------|----------|--------------|------------|
E|----------|----------|-----------|----------|--------------|------------|
  
  Am            G               Am                G                Am
e|----------|----------|-------|----------|--------------|----------------|----------------|
B|----------|----------|-------|----------|--------h--p--|----------------|----------h--p--|
G|--------9-|-9-9-10---|-12-10-|--------9-|-12-10-9-19-9-|------------s---|------10-9-10-9-|
D|-7-9-10---|--------9-|-------|-7-9-10---|--------------|----7-10-9-9\10-|----7-----------|
A|----------|----------|-------|----------|--------------|-10-------------|-10-------------|
E|----------|----------|-------|----------|--------------|----------------|----------------|


e|--------s--------------|-8-8-8-8-8-7-7--h------|------------------|----------------|----------|
B|-8-8-8-8\6-6-6-5-5-----|---------------8-10-10-|------------------|----------h--p--|------s---|
G|-------------------5-5-|-----------------------|--------------s---|------10-9-10-9-|-10-10\12-|
D|-----------------------|-----------------------|----7-9-10-9-9\10-|----7-----------|----------|
A|-----------------------|-----------------------|-10---------------|-10-------------|----------|
E|-----------------------|-----------------------|------------------|----------------|----------|


03:23 - I Think The Classical Continues With The Electric Guitar For The First Few Notes.
ELECTRIC GUITAR SOLO
*********************
e|------------------|----------------------|---------h--p---------|-------10-12-13-|
B|-------h--p-------|---------h--p-------s-|-10-12-10-12-10----10-|-12-13----------|
G|-9-10-9-10-9----9-|-10-12-10-12-10-9-10\-|----------------12----|----------------|
D|-------------12---|----------------------|----------------------|----------------|
A|------------------|----------------------|----------------------|----------------|
E|------------------|----------------------|----------------------|----------------|
                                                     high
    b - Holds the note for a long time........    rb   b  03:43
e|-15~~~~~~~~~~~~~~~~~~~~~~~~~~~~~~~~~~~~~~~~~~~-15---15-|-------20--------|---------------------|---h--p---|
B|-------------------------------------------------------|-17-18-----17-17-|-17-18-20-18---17-17-|-17-18-17-|
G|-------------------------------------------------------|-----------------|---------------------|----------|
D|-------------------------------------------------------|-----------------|---------------------|----------|
A|-------------------------------------------------------|-----------------|---------------------|----------|
E|-------------------------------------------------------|-----------------|---------------------|----------|

                                                      03:58                                       h  p
e|--b-------------------------|--------------------b-|--b----------20-19-17----|--b----------20-19-20-19-17----|
B|-20-20-18-17---h---17-18-20-|-17-18--15-17--13-15--|-20-20-18-17----------17-|-20-20-18-17----------------17-|
G|-------------17-19----------|----------------------|-------------------------|-------------------------------|
D|----------------------------|----------------------|-------------------------|-------------------------------|
A|----------------------------|----------------------|-------------------------|-------------------------------|
E|----------------------------|----------------------|-------------------------|-------------------------------|

                                                           h  p    04:12
e|--br-------------------------------|---h--h---17-19-20-19-20-19-|-19-20-22-20-19----19-20----|
B|-20-18-17--br----------b--b------b-|-17-18-20-------------------|----------------22-------17-|
G|----------19-17----17-19-19-19--19-|----------------------------|----------------------------|
D|----------------19-----------------|----------------------------|----------------------------|
A|-----------------------------------|----------------------------|----------------------------|
E|-----------------------------------|----------------------------|----------------------------|

                            b
e|-19-20-22-20-19----19-20-20-20-|-19-20-22-20-19----20-19-------19----------------------s-|
B|----------------22-------------|----------------22-------22-20----22-20-18----20-18~~~~\-|
G|-------------------------------|-------------------------------------------21------------|
D|-------------------------------|---------------------------------------------------------|
A|-------------------------------|---------------------------------------------------------|
E|-------------------------------|---------------------------------------------------------|

04:26                                                  
e|-19-20-22-20-19----19-20----|
B|----------------22-------17-|
G|----------------------------|
D|----------------------------|
A|----------------------------|
E|----------------------------|

                            b
e|-19-20-22-20-19----19-20-20-20-|-19-20-22-20-19----20-19-------19----------------------s-|
B|----------------22-------------|----------------22-------22-20----22-20-18----20-18~~~~\-|
G|-------------------------------|-------------------------------------------21------------|
D|-------------------------------|---------------------------------------------------------|
A|-------------------------------|---------------------------------------------------------|
E|-------------------------------|---------------------------------------------------------|


-----------------------------------
OUTRO ACOUSTIC PICKING - Repeat chorus lyrics
***********************
  Am                                G                 Am                Dm            Em
e|-----0-------0-------0-------0---|-----3-------3---|-----0-------0---|-------1-----|-----------|
B|---1---1---1---1---1---1---1---1-|---3---3---3---3-|---1---1---1---1-|-----3---3---|---------0-|
G|-2-------2-------2-------2-------|-4-------4-------|-2-------2-------|---2-------2-|-------0---|
D|---------------------------------|-----------------|-----------------|-0-----------|-----2-----|
A|---------------------------------|-----------------|-----------------|-------------|---2-------|
E|---------------------------------|-----------------|-----------------|-------------|-0---------|



ENJOY.....

            
            
Suggest correction
Creating personal tab
Creating personal tab
You can edit any tab online and save it as your Personal.

You can edit, replace or remove any tab part or add personal notes – all changes will be seen only by you.

Personal tabs can be accessed anytime from any device, even offline.
Learn more »
Give kudos to tab author, rate the tab!
1 2 3 4 5
comments
print report bad tab
guest
You may want to rate the tab now too:
select rating
Wanna post a correction for this tab? Suggest correction