Oops, an error
Loading. Please wait.

Insanity Rains intro tab

version 1
version 1

Intro

Whole song

355 views 1 this week
1 commentread comment
1 2 3 4 5
3 more votes to show rating
add to favorites
×
Save as Personal and add changes to this tab that will be seen only by you. Learn more ›
×
You can save this tab as Personal to edit and correct it or add notes. All changes will be seen only by you. Learn more »
launch autoscroll
font size
0
reset
how to read this tab
guitar tuner
edit
Autoscroll
slow
fast
+/-
esc
set tempo
stop
Difficulty
E5|--------------------------------------------------------|
B4|--------------------------------------------------------|
G4|--------------------------------------------------------|
D4|--------------------------------------------------------|
A3|-----------5---7----------------------------------------|
E3|---0---0-----------0---0---3---3---3---5---7---5---3----|

repeat 7x  works on bass too


E5|----------------------------------------------------------------------|
B4|----------------------------------------------------------------------|
G4|----------------------------------------------------------------------|
D4|----7---7---5---7---7---5---7---7---5---7---7---5---7---7-------------|
A3|----7---7---5---7---7---5---7---7---5---7---7---5---7---7-------------|
E3|----5---5---3---5---5---3---5---5---3---5---5---3---5---5-------------|


thats all i know it should sound right

            
            
Suggest correction
Creating personal tab
Creating personal tab
You can edit any tab online and save it as your Personal.

You can edit, replace or remove any tab part or add personal notes – all changes will be seen only by you.

Personal tabs can be accessed anytime from any device, even offline.
Learn more »
Give kudos to tab author, rate the tab!
1 2 3 4 5
comments
print report bad tab
1 comment total.
0 reply
mat1451 10 Jul 02, 2009 12:06 AM

E|-----------------------------------------|
B|-----------------------------------------|
G|-----------------------------------------|
D|-----------------------------------------|
A|-------XX--5-7---XX-------XX-------------|
E|---0-0-XX------0-XX-0-3-3-XX-3-5-6-5-3---|

guest
Wanna post a correction for this tab? Suggest correction