Oops, an error
Loading. Please wait.

Insanity Rains Tab

version 2
version 2

Intro

Whole song

162 views 1 this week
no commentswrite comment
1 2 3 4 5
please rate
add to favorites
launch autoscroll
font size
0
reset
how to read this tab
guitar tuner
Autoscroll
slow
fast
+/-
esc
set tempo
stop
Help us to improve Ultimate-Guitar.com Take our survey!
×
Author
Difficulty
intermediate
 guitar/BASS intro. repeat as many times needed.
works on bass too.
E5|-----------------------------------------------------|
B4|-----------------------------------------------------|
D4|-----------------------------------------------------|
G4|-----------------------------------------------------|
A3|-----------5---7-------------------------------------|
E3|---0---0-----------0---0---3---3---3---5---6---5---3-|

E5|----------------------------------------------------|
B4|----------------------------------------------------|
D4|----------------------------------------------------|
G4|---5---7---7---5---7---7---5---7---7---5---7---7----|
A3|---5---7---7---5---7---7---5---7---7---5---7---7----|
E3|---3---5---5---3---5---5---3---5---5---3---5---5----|

 the part after i think it goes like.....

E5|---------------|
B4|---------------|
D4|---------------|
G4|---2--2--2-----|
A3|---2--2--2-----|
E3|---0--0--0-----|
     repeat 4x then play this

E5|-------------------------------|
B4|-------------------------------|
D4|-------------------------------|
G4|---5-5-5----5-5-5---5-5-5------|
A3|---5-5-5----5-5-5---5-5-5------|
E3|---3-3-3----3-3-3---3-3-3------|

thats all i know it should sound right.
Suggest correction
Give kudos to tab author, rate the tab!
1 2 3 4 5
comments
print report bad tab
guest
You may want to rate the tab now too:
select rating
Wanna post a correction for this tab? Suggest correction