Oops, an error
Loading. Please wait.

Kids Arent Safe In The Metro intro tab

version 1
version 1

Intro

Whole song

  • This isn't different, this is just what Satellite ... Show more
2,608 views 12 this week
3 commentsread comments
1 2 3 4 5
x 4
add to favorites
×
Save as Personal and add changes to this tab that will be seen only by you. Learn more ›
×
You can save this tab as Personal to edit and correct it or add notes. All changes will be seen only by you. Learn more »
launch autoscroll
font size
0
reset
how to read this tab
guitar tuner
edit
Autoscroll
slow
fast
+/-
esc
set tempo
stop
Author
Satellite stories - Kids aren't safe in the metro
Standard tuning.
Just some parts that I figured out, needs to be completed (by someone else?)

Intro, verse and prechorus

----------------|
----------------|
---9---9-98888--|
-78-778-7-------|
----------------|
----------------| This a few times

---------------|
---------------|
-13-11-9-10----|
---------------|
---------------|
---------------|


Guitar thingy in the verse

------------------|
------------------|
-16--14--13-------|
---14--14--14-----|
------------------|
------------------|

The bridge has the following notes, haven't figured it out yet
--------------------|
--------------------|
--------------------|
--1414-16-18--------|
--------------------|
--------------------|

            
            
Suggest correction
Creating personal tab
Creating personal tab
You can edit any tab online and save it as your Personal.

You can edit, replace or remove any tab part or add personal notes – all changes will be seen only by you.

Personal tabs can be accessed anytime from any device, even offline.
Learn more »
comments
print report bad tab
3 comments total.
+3 reply
Jackie'sGerbil 27 Aug 17, 2013 02:47 PM

I figured out the intro myself and then came here and checked this. I think you tabbed it pretty much wrong, here's what i think is more or less perfect:

e|---------------------------------------|
B|---------------------------------------|
G|-----9---------9----9/8-8-8-8-8-8-8-8--|
D|-6-7---6--6-7----6---------------------|
A|---------------------------------------|
E|---------------------------------------|

e|----------------------|----------------------|
B|----------------------|--------------9-7-----|
G|-----9---------9----9-|-----9------------8h9-|
D|-6-7---6--6-7----6----|-6-7---6--6-7---------| x2
A|----------------------|----------------------|
E|----------------------|----------------------|

-1 reply
Pelusteriano 5,295 Jun 23, 2014 08:48 PM

Lack of formatting. Lack of accuracy. Tab incomplete.

guest
You may want to rate the tab now too:
select rating
Wanna post a correction for this tab? Suggest correction