Oops, an error
Loading. Please wait.

Serenata Tab

by Sati
68 views 3 this week
no commentswrite comment
1 2 3 4 5
3 more votes to show rating
add to favorites
launch autoscroll
font size
0
reset
how to read this tab
guitar tuner
×
Best way to learn
"Serenata"
Autoscroll
slow
fast
+/-
esc
set tempo
stop
Esta tablitura está casi bien y muy sencilla espero que les sirva,
cualquier corrección escriban a mi correo marioboxAC@

Esta es la nota A(no5) que es parte de esta canción.

E|--------|
B|--------|
B|--2-----|
D|--------|
A|-----4--|
E|--------|

INTRO:

En las flechas significa un rasgado

|                          ^
| Uno solo para abajo      | Uno solo para arriba
v                          |


                 |  ^            |  ^                  |
                 |  |            |  |                  |
   D             V  |    A(no5)  V  |  Em              V
E|-3/2-----2-----2--2---------0--0--0-------------0---12-----|
B|-----3---3-----3--3---------0--0--0--------0----0---12-----|
B|-------2-------2--2-------2----2--2------0---0------12-----|
D|-0-------------0--0------------0--0------------------------|
A|-----------------------4-----------------------------------|
E|--------------------------------------0--------------------|


VERSO: TABLITURA DE EJEMPLO
                 |  ^            | ^                              |
                 |  |            | |                              |
   D             V  |    A(no5)  V |   Em                         V
E|-3/2-----2-----2--2---------0--0-0---------------------0-------12-|
B|-----3---3-----3--3---------0--0-0-----------0---------0-------12-|
B|-------2-------2--2-------2----2-2--------0----0---------------12-|
D|-0-------------0--0------------0-0--------------------------------|
A|-----------------------4------------------------------------------|
E|-------------------------------------0----------------------------|
  Tengo ganas de besarte      de  abrazarte y de poder hablarte

VERSO: RASGUE DE EJEMPLO
   |        ^  |      |      ^ | |     |            | |  ^    ^ ^ |
   |        |  |      |      | | |     |            | |  |    | | |
   V        |  |      |      | V V     V            | |  |    | | |
   D        |  V      V      A(no5)    Em           V V  |    | | V
E|-3/2------2--2------2------0-0-0------------------0-0--0----0-0-0-|
B|-3--------3--3------3------0-0-0------------------0-0--0----0-0-0-|
B|-2--------2--2------3------2-2-2------------------0-0--0----0-0-0-|
D|-0-------------------------0-0-0-----2------------2-2--2----2-2-2-|
A|-----------------------4---4-4-4-----2----------------------------|
E|-------------------------------------0----------------------------|
  Tengo ganas de besarte      de  abrazarte y de poder hablarte


VERSO I:----------------------------------------------------------

  D                   A(no5)  Em
Tengo ganas de besarte de abrazarte y de poder hablarte
     D                      A(no5)  Em
y decirte que me tienes loco aunque sea por primera vez
 D                    A(no5)   Em
quiero tomarte la mano ver tus ojos y besar tu alma
      D                  A(no5)  Em
tu sonrisa cada madrugada que domina a mi soledad$

CORO:-------------------------------------------------------------

        Bm             E           A
y hoy traigo esta serenata con mi voz tan solo basta
      Bm            E               A                   Em
y te digo que yo quiero estar a tu lado porque no hay lugar
         A              Bm          E             A
que no pueda verte no pueda sentirte estas en mi mente
           Em      D          A
no puedo vivir lo tengo que decir
            Em        A             Bm        E               A
y tu me acaricias con tu mirada yo solo quiero declararte mi amor
              Em  D  A
con esta cancioOOOO0ON

VERSO II:---------------------------------------------------------

  D                A(no5)    Em
Eres tu la princesa de los sueños de los cuentos de hada
           D                  A(no5) Em
que en el corazón de todo niño   lo llegas a enamorar
D                 A(no5)      Em
eres la que me embruja con su voz la que me hace pensar que eres
D    A(no5)    Em
Solo        poesía

CORO:-------------------------------------------------------------

        Bm             E           A
y hoy traigo esta serenata con mi voz tan solo basta
      Bm            E               A                   Em
y te digo que yo quiero estar a tu lado por que no hay lugar
         A              Bm          E             A
que no pueda verte no pueda sentirte estas en mi mente
           Em      D          A
no puedo vivir lo tengo que decir
            Em        A             Bm        E               A
y tu me acaricias con tu mirada yo solo quiero declararte mi amor
              Em D A              D
con esta canciooooon con esta cancion
Suggest correction
Give kudos to tab author, rate the tab!
1 2 3 4 5
comments
print report bad tab
guest
You may want to rate the tab now too:
select rating
Wanna post a correction for this tab? Suggest correction