Oops, an error
Loading. Please wait.

Christ Goodbye Tab

5,221 views 1 this week
no commentswrite comment
1 2 3 4 5
accurate
x 3
add to favorites
launch autoscroll
font size
0
reset
how to read this tab
guitar tuner
Autoscroll
slow
fast
+/-
esc
set tempo
stop
Help us to improve Ultimate-Guitar.com Take our survey!
×
Artist:Saturnus
Album: Paradise Belongs To You
Song: Crist Goodbye

transcribed by Nikolaj Balle

.  - palm mute                    
\  - slide down to                
h  - hammer on                    
p  - Pull off
ph - pinch harmonic                
*  - see comment                    
r  - release                                                           
X  - percussion mute                
@  - slight palm mute                   
() - ghost note, sustained note
"  - tremolo pick until next note
 / - slide up to
\  - slide down to
~  - vibrato                

Suffixes for bend
b  - bend
hb - half bend
f  - fullbend  
t  - tab bend                
~  - vibrato ben

 Tune 3 halftone down to C# 

Riff A (without distortion) 

|----------------------------------------------|----------------------------------------------|
|----------------------------------------------|----------------------------------------------|
|----------------------------------------------|----------------------------------------------|
|---7h9-9----9------9h10p9---7h9-9---9-----10--|---7h9-9---9-----9h10p9---7h9-9----9----------|
|---------10---10-9----------------10--10-9----|---------10--10-9---------------10---10-9-10--|
|-0------------------------0-------------------|-0----------------------0---------------------|

Riff B (with distortion)

Guitar I
|-------------------------------------------------------------------------------------|
|------10h12-12-12p10-------10-10-10h12------12h13-15-15p12------10h12-12-12p10-13----|
|-------------------------------------------------------------------------------------|
|-------------------------------------------------------------------------------------|
|-2-22-----------------2-22-------------2-22----------------2-22----------------------|
|-0-00-----------------0-00-------------0-00----------------0-00----------------------|
|   ..                   ..               ..                  ..                      |
|                                                                                     |            
|Guitar II                                                                            |
|-------------------------------------------------------------------------------------|                
|------5-----------5-------------------------5------7---------------------------------|                     
|--------------------------4-------------------------------------4--------------------|                 
|-------------------------------------------------------------------------------------|                   
|-2-22-3-----------3--2-22--------------2-22-3------5-------2-22----------------------|                  
|-0-00----------------0-00-3---3555555--0-00----------------0-00-3----------3-555-555-|
    ..                  ..                ..                  ..     

Riff 2 continued

Guitar I
|--------------------------------------------------------------------------------------------------|
|------10h12-12-12p10------10-12-13-13-13-13-12-10-------1h12-12-12p10-------10-12-13-13-13-12-----|
|----------------------------------------------------------------------------------------------12~-|
|--------------------------------------------------------------------------------------------------|
|-2-22-----------------2-22-------------------------2-22----------------2-22-----------------------|
|-0-00-----------------0-00-------------------------0-00----------------0-00-----------------------|
|   ..                   ..                           ..                  ..                       |      
|                                                                                                  |   
| Guitar II                                                                                        |
|--------------------------------------------------------------------------------------------------|
|------5--------3----------------------------------------5--------7----------4---------------------|
|------------------------4-------------------------------------------------------------------------|
|--------------------------------------------------------------------------------------------------|
|-2-22-3--------2---2-22----------------------------2-22-3--------5-----2-22-3---------------------|
|-0-00--------------0-00-3----------------3-555-555-0-00----------------0-00-------------3-555-555-|
    ..                ..                              ..                  ..

Riff 3(Without Distortion)  vers

/ x4                             \/ x3                                \
| ------------------------------- || --0------------------------------ |
| ---0--------0------0------0---- || ---0----0--------0------0-------- |
|.-2--2--------2------0------0---.||.-2-------2--------0------0-------.|
| -2------------2--2----------2-- || -2--------2----2----------2------ |
|.-2------2--------2-----2-------'||'-2-----2-------2------2----------'|
| -0------0--------0-----0------- || -0-----0-------0------0---------- |
\                                /\                                   /

Riff 4

Guitar I(with Distortion) 

|-----------------------------------------------------------------------------------|
|------3h5-5-5p3-----------------------------10-12-12hb-10------10-10-10-12-13------|
|--------------------------4/5-7-575\4---------------------------------------12-----|
|-----------------------------------------------------------------------------------|
|-2-22----------------2-22--------------2-22---------------2-22---------------------|
|-0-00----------------0-00--------------0-00---------------0-00---------------------|
|   ..                  ..                ..                 ..                     |
|                                                                                   |
|                                                                                   |
|  Guitar II                                                                        |
|-----------------------------------------------------------------------------------|                
|------5-----------5-------------------------5------7-------------------------------|                     
|--------------------------4-------------------------------------4------------------|                 
|-----------------------------------------------------------------------------------|                   
|-2-22-3-----------3--2-22--------------2-22-3------5-------2-22--------------------|                  
|-0-00----------------0-00-3---3555555--0-00----------------0-00-3-----3-555555-----|
    ..                  ..                ..                  ..     


  Guitar I
|------10h12-12-12p10----------------------------------------------------------------|
|--------------------------10-10-10h12-------12/13-13-13-13\12-------7/8-10-7h8p7\5--|
|------------------------------------------------------------------------------------|
|------------------------------------------------------------------------------------|
|-2-22----------------2-22--------------2-22--------------------2-22-----------------|
|-0-00----------------0-00--------------0-00--------------------0-00-----------------|
|                                                                                    |
|                                                                                    | 
|                                                                                    |
| Guitar II                                                                          |
|------------------------------------------------------------------------------------|
|------5--------3-----------------------------8/10-10-10-10\8--------7/8-10-7h8p7\5--|
|--------------------------4---------------------------------------------------------|
|------------------------------------------------------------------------------------|
|-2-22-3--------2-----2-22--------------2-22--------------------2-22-----------------|
|-0-00----------------0-00-3--3-555-555-0-00--------------------0-00-----------------|


Riff 5

  * - Overtone
/                                                        \
|--------------------------------------------------------|
|--------------------------------------------------------|
|--------------------------------------------------------|
|--------------------------------------------------------|
|--0h2-2-2--2h3p2--0h2-2-2--3--0h2-2--2h3p3--0h2-2-------|
|-0-----3-32------0-----3-32--0---3-32------0---3--32h3*-|
\                                                        /

This is it...there shoulden't be any mistakes
comments
We did not receive enough feedback on this tab! Please rate:
print report bad tab
1 2 3 4 5
I want to post or [tab]
guest
You may want to rate the tab now too:
select rating
Please do not post tabs as comments. Select "correction" instead!