Oops, an error
Loading. Please wait.

Pretend Tab

version 2
version 2

Intro

2,030 views 1 this week
no commentswrite comment
1 2 3 4 5
please rate
add to favorites
launch autoscroll
font size
0
reset
how to read this tab
guitar tuner
Autoscroll
slow
fast
+/-
esc
set tempo
stop
Help us to improve Ultimate-Guitar.com Take our survey!
×
Author
-------------------------------------------------------------------------------
                             Pretend - Saturnus
-------------------------------------------------------------------------------
Tabbed by:BLEAK
E-mail : almajali.shaher@yahoo.com
Comment : not the whole song
i will tab it soon on guitar pro so stay tuned

Tuning: tuned 1.5 step down

Guitar 1
D|---------------------------------------------------------------------------------------|
A|---------------------------------------------------------------------------------------|
F|---------------------------------------------------------------------------------------|
C|-----5--4-------------------------------------5----5-------------7----7----5h7---4----5|
G|--2--------5----2-----5-----2-----5/7-----3------------3/5-----------------------------|
D|0--------------------------------------------------------------------------------------|


Guitar 2
D|---------------------------------------------------------------------------------------|
A|---------------------------------------------------------------------------------------|
F|---------------------------------------------------------------------------------------|
C|-----5--4-------------------------------------5----5-------------7----7----5h7---4----5|
G|--2--------5-----2----5-----2-----5/7-----3-------------3/5----------------------------|
D|0--------------------------------------------------------------------------------------|

Guitar 1
D|----------------------------|------------------------------------------|
A|----------------------------|------------------------------------------|
F|----------------------------|------------------------------------------|
C|------9------------5------4-|------9------------5------7p4------2------|
G|----------------------------|------------------------------------------|
D|----------------------------|------------------------------------------|


Guitar 2
D|----------------------------|------------------------------------------|
A|----------------------------|------------------------------------------|
F|----------------------------|------------------------------------------|
C|----9-------------5-------4-|-----9------------5-------7--4-------2----|
G|----9-------------5-------4-|-----9------------5-------7--4-------2----|
D|----7-------------3-------2-|-----7------------3-------5--2-------0----|

and after the piano
with a clean electric voice


D|----------------------------------------------------------------------------------------------|
A|----------------------------------------------------------------------------------------------|
F|----8----8/12--12----12\7-----7-----7/10-----10\8----8----8/12----7----7-----5-----5----------|
C|----------------------------------------------------------------------------------------------|
G|----------------------------------------------------------------------------------------------|
D|----------------------------------------------------------------------------------------------|


| /  slide up
| \  slide down
| h  hammer-on
| p  pull-off
| ~  vibrato
| +  harmonic
| x  Mute note
===============================================================================
Suggest correction
Give kudos to tab author, rate the tab!
1 2 3 4 5
comments
print report bad tab
guest
You may want to rate the tab now too:
select rating
Wanna post a correction for this tab? Suggest correction