Oops, an error
Loading. Please wait.

Fuel For Hatred Tab

version 1
version 1

Whole song

Interactive

11,910 views 12 this week
4 commentsread comments
1 2 3 4 5
x 14
add to favorites
launch autoscroll
font size
0
reset
how to read this tab
guitar tuner
×
Best way to learn
"Fuel For Hatred"
Autoscroll
slow
fast
+/-
esc
set tempo
stop
band - satyricon
song - fuel for hatred
album - volcano
tuning - standard 1/2 step down (Eb,Bb,Gb,Db,Ab,Eb,)

[Intro] 
(riff 1)                            
Eb|------------------------------|-----------------------------| (x3)
Bb|------------------------------|-----------------------------|
Gb|------------------------------|-----------------------------|
Db|--2222--9999--2222--9/10------|--2222--9999--2222--5/8-5/8--|
Ab|--2222--7777--2222--7/-8-8~---|--2222--7777--2222--3/6-3/6--|
Eb|--0000--0000--0000--0---------|--0000--0000--0000-----------|

                        play this 4th time
Eb|------------------------------|-------------------------------------|
Bb|------------------------------|-------------------------------------|
Gb|------------------------------|-------------------------------------|
Db|--2222--9999--2222--9/10------|--2222--9999--2222--5/8-5/8-5/8-5/8--|
Ab|--2222--7777--2222--7/-8-8~---|--2222--7777--2222--3/6-3/6-3/6-3/6--|
Eb|--0000--0000--0000--0---------|--0000--0000--0000-------------------|

(riff 2)
Eb|--------------|----------------|----------------------------------| (x2)
Bb|--------------|----------------|----------------------------------|
Gb|--------------|----------------|----------------------------------|
Db|--7/8-5/7-----|--7-7/8-5/7-----|--7-7/8-5/7-----------------------|
Ab|--5/6-3/5-7~--|--5-5/6-3/5-7~--|--5-5/6-3/5-7~--6666666666666666--|
Eb|----------5~--|------------5~--|------------5~--4444444444444444--|

[Verse]
(riff 3)
Eb|------------------------|
Bb|------------------------|
Gb|------------------------|
Db|-----------------88888--|
Ab|--7----------777-66666--|
Eb|--5-<555555>-555--------|

[Chorus]
(riff 4)
'FUEL FOR HATRED...!'
Eb|-------------------------------------|
Bb|-------------------------------------|
Gb|-------------------------------------|
Db|-------------------------------------|
Ab|--7/8---7/8-----10-8-10-11-11-11-11--|
Eb|--5/6-0-5/6-000--8-6--8--9--9--9--9--|

[Interlude]
(riff 5)
Eb|---------------------|
Bb|---------------------|
Gb|---------------------|
Db|--2/--2/--2/--2------|
Ab|--2/--2/--2/--2--1~--|
Eb|--0/--0/--0/--0------|

(riff 2)
Eb|--------------|----------------|----------------------------------| (x2)
Bb|--------------|----------------|----------------------------------|
Gb|--------------|----------------|----------------------------------|
Db|--7/8-5/7-----|--7-7/8-5/7-----|--7-7/8-5/7-----------------------|
Ab|--5/6-3/5-7~--|--5-5/6-3/5-7~--|--5-5/6-3/5-7~--6666666666666666--|
Eb|----------5~--|------------5~--|------------5~--4444444444444444--|

(riff 3) (x8)
Eb|------------------------|
Bb|------------------------|
Gb|------------------------|
Db|-----------------88888--|
Ab|--7----------777-66666--|
Eb|--5-<555555>-555--------|

[Outro]
(riff 6)
'FUEL FOR HATRED...!'
Eb|-------------------------------------| (x3)
Bb|-------------------------------------|
Gb|-------------------------------------|
Db|-------------------------------------|
Ab|--7/8---7/8-----10-8-10-11-11-11-11--|
Eb|--5/6-0-5/6-000--8-6--8--9--9--9--9--|

      4th time
Eb|-----------------------------|
Bb|-----------------------------|
Gb|-----------------------------|
Db|-----------------------------|
Ab|--7/8---7/8-----10-8-10-11---|
Eb|--5/6-0-5/6-000--8-6--8--9---|


************************************

| b  Bend
| /  Slide up
| ~  Vibrato

************************************
Suggest correction
comments
print report bad tab
4 comments total. Showing first comments.
+1 reply
boxsocialmaster 10 Mar 23, 2008 02:07 PM

definitely 100% correct thanks for the tab

+1 reply
kyle1598 10 Jun 18, 2008 09:45 AM

Probly not 100% correct, maybe like 99%. most of the notes are right, but I personnaly think they would be easier to play somewhere else on the fretbord. Like the vibrato on the first fret. I would play that on the 6th fret of the next lowest string

0 reply
immortal_stone 461 Jul 08, 2008 04:58 PM

yeah that vibrato on the 1st fret is actually meant to be on the 6th,cheers kyle

guest
You may want to rate the tab now too:
select rating
Wanna post a correction for this tab? Suggest correction