Oops, an error
Loading. Please wait.

Fuel For Hatred Tab

version 2
version 2

Whole song

Interactive

4,113 views 6 this week
2 commentsread comments
1 2 3 4 5
accurate
x 6
add to favorites
launch autoscroll
font size
0
reset
how to read this tab
guitar tuner
Autoscroll
slow
fast
+/-
esc
set tempo
stop
Help us to improve Ultimate-Guitar.com Take our survey!
×
ARTIST-Satyricon
SONG-Fuel for hatred
ALBUM-Volcano
Tabbed By-Big Bear 
Tuning-standard

LEGEND;
vibrato-~
slide up-/
slide down-\
natural harmonic-()
pinch/artificial harmonic-PH/AH
tap-T
palm mute-PM
fretting hand mute-x
tremolo pick (pick as fast as possible)-TP


RIFF 1

E|------------------------------------|---------------------------------|
B|------------------------------------|---------------------------------|
G|------------------------------------|---------------------------------|
D|---------9-9-9-9---------9-/10------|---------9-9-9-9-----------------|
A|-2-2-2-2-7-7-7-7-2-2-2-2-7-/8--8-~--|-2-2-2-2-7-7-7-7-2-2-2-2-7/8-7/8-|
E|-0-0-0-0---------0-0-0-0------------|-0-0-0-0---------0-0-0-0-5/6-5/6-|

RIFF 2

E|-----------------------------------------|
B|-----------------------------------------|
G|-----------------------------------------|
D|--7-8-7-8----8-8-7-8---------------------|
A|--5-6-5-6-8--6-6-5-6-8-7-7-7-7-7-7-7-7-7-|
E|----------6----------6-5-5-5-5-5-5-5-5-5-|

RIFF 3

E|--------------------------|
B|--------------------------|
G|--------------------------|
D|--------------------------|
A|-2-(5)-(5)-(5)-7-8-8-8-8--|
E|-0-(5)-(5)-(5)-5-6-6-6-6--|

RIFF 4

E|---------------------------|
B|---------------------------|
G|---------------------------|
D|---------------------------|
A|-7/8-7/8\2--8-7-8-9-9-9-9--|
E|-5/6-5/6\0--6-5-6-7-7-7-7--|

RIFF 5

E|-------------------------------------------|
B|-------------------------------------------|
G|-------------------------------------------|
D|-------------------------------------------|
A|-------------------------------------------|
E|--0-//////----0-//////----0-//////----0-6~-|


that's it .you'll have to listen to the cd for timings and where the parts
go.personally,I think the tremolo picked slide part is annoying as shit,
but it's in te song so i had to tab it.
Suggest correction
comments
print report bad tab
2 comments total.
0 reply
big bear 70 wrote on November 8 2004, 12:00 am

Correction - the

--------------
--------------
-9-/--10-10---
-7-/--8--8----
-------------- part of the tab is actually

-------------
-------------
-9-/-10--10--
-------------
-7-/-8--8----
-------------

0 reply
leviathan_133 10 wrote on June 20 2007, 12:46 pm

yes, tis annoying

guest
You may want to rate the tab now too:
select rating
Wanna post a correction for this tab? Suggest correction