Oops, an error
Loading. Please wait.

Min Hyllest Til Vinterland Tab

5,638 views 1 this week
no commentswrite comment
1 2 3 4 5
excellent!
x 5
add to favorites
launch autoscroll
font size
0
reset
how to read this tab
guitar tuner
Autoscroll
slow
fast
+/-
esc
set tempo
stop
Help us to improve Ultimate-Guitar.com Take our survey!
×
Author
band - satyricon
song - min hyllest til vinterland
album - dark medieval times
tuning - standard tuning (e,b,g,d,a,e,)


~ - let note ring
/ - slide
h - hammer on
p - pull off

this is an awesome instrumental and i couldnt find a tab for it so i tabbed it myself 
pretty accurate,so rip out the accoustics and get into it!

please rate

 riff 1 (acc. guitar)

e-----------------]------------]-----------------] x4
b-----------------]------------]-----------------]
g---------7-------]------------]-----------------]
d--7-8-10---8-7~--]--7-8-------]--7-----10-8-7~--]
a-----------------]------8-7~--]----8-7----------]
e-----------------]------------]-----------------]

 riff 2
e------------------------------------] x2
b------------------------------------]
g------------------------------------]
d-------10-9~------9-10-12--9-10-7~--]
a----0---0-0~----0-0--0--0--0--0-0~--]
e--0-----------0---------------------]


 riff 3
e----------------------------]
b----------------------------]
g----------------------------]
d----------------------------]
a--7~-7/2~--2/7~--7/2~--2/7--]
e--0~-0-0~--0-0~--0-0~--0-0--]


  riff 4
e------------------------x3]------4th time-------------]--end part after 1st-]
b--------------------------]---------------------------]--solo---------------]
g--------------------------]---------------------------]---------------------]
d--------0--0--------------]--------0--0---------------]---------------------]
a------7--7-----7-------2--]------7--7------7-------9--]----7-8~-------------]
e--0~---------8--8----3----]--0~----------8--8----10---]--0~-----------------]


 solo 1 (gtr 2 plays this,gtr 1 plays riff 4)

e--------------------------]---------------------]
b--------------------------]---------------------]
g---9-10-9-7-9~--9-10-7-9--]---9-10-9-7--9---7---]
d--10----------------------]--10----------10--9--]
a--------------------------]---------------------]
e--------------------------]---------------------]


e--------------------------------------------]
b--------------------------------------------]
g---9-10-9-7-9-10-12-10-9-7-9~---------------]
d--10---------------------------12-10-9-10~--]
a--------------------------------------------]
e--------------------------------------------]


  riff 5
e---------------------------------------------------------]
b---------------------------------------------------------]
g---------------------------------------------------------]
d---------------------------------------------------------]
a--7-7-6-7-8-7-6-7--2-3-3-3-2-2-1-2-2--2-3-3-3-2-2-1-2-2--]
e--0-0-0-0-0-0-0-0--0-0-0-0-0-0-0-0-0--0-0-0-0-0-0-0-0-0--]

e------------------------------------------------------------------]
b------------------------------------------------------------------]
g------------------------------------------------------------------]
d------------------------------------------------------------------]
a--7-7-6-7-8-10-10-10-7-8-7--2-3-3-3-2-2-1-2-2--2-3-3-3-2-2-1-2-2--]
e--0-0-0-0-0-0---0--0-0-0-0--0-0-0-0-0-0-0-0-0--0-0-0-0-0-0-0-0-0--]


 solo 2 (gtr 1 plays riff 4)

e-----------------------]------------------------]-----------------------]
b-----------------------]------------------------]-----------------------]
g---------7-------------]------------------------]----------7------------]
d--7-9-10---10~-9~-7-9--]--7-8-7~----------------]--9-9-9-9~--10-9-7-9~--]
a-----------------------]------------5-7-8-8-7~--]-----------------------]
e-----------------------]---------5-7------------]-----------------------]

------------------------------------]
e-----------------------------------]
b-----------------------------------]
g--9-10-9-7-------------------------]
d-----------10-9-10~----------------]
a---------------------10-12-10-12~--]
e-----------------------------------]


 riff 6
e-----------------x9]-----10th time------------]
b-------------------]--------------------------]
g-----0--0----------]-----0--0-----------------]
d----7--7-----7--7--]----7--7-----7--9-10--7~--]
a--0--------8--7----]--0--------8---10-----0~--]
e-------------------]--------------------------]


 solo 3 (gtr 1 plays riff 6)

e-----------------------------]-------------------]
b-----------------------------]-------------------]
g--------9h10-9---------------]-------------------]
d--10-12--------12-12-12/14~--]--9h10~-9-7----9~--]
a-----------------------------]------------10-----]
e-----------------------------]-------------------]


e-----------------------------------------------------]
b-----------------------------------------------------]
g--9h10-9-9-9-7-9~--9~--9-9h10p9p7-9~--9-9h10p9p7-9~--]
d-----------------------------------------------------]
a-----------------------------------------------------]
e-----------------------------------------------------]


e----------------------------------]----------------------------------------]
b----------------------------------]----------------------------------------]
g--12-10-9-------------------------]-----------------------9-10-12-7~7-9-10-]
d----------12-12~--10-9h10p9-------]--7-6-7-9-7h9p7-9-10-12-----------------]
a-----------------------------12~--]----------------------------------------]
e----------------------------------]----------------------------------------]


e-------------]-----------------------------------------------------------]
b--10-10-10~--]-----------------------------------------------------------]
g-------------]--9-9h10p9-7-9---------------------------------------------]
d-------------]---------------12-10-9----9-----------------9-10~-9-10-9-7~]
a-------------]-----------------------12---10-10/12~--10-12---------------]
e-------------]-----------------------------------------------------------]


 riff 7 (acc.gtr with delay)

e------------------------------------]
b------------------------------------]
g------------------------------------]
d-------0--0-------------------------]
a-----7--7------7------8-------------]
e--0~---------8---8--6----0-}-}-}-}--]


 'my tribute to the winterland' (translated)

 tabbed by immortal_stone
Suggest correction
What's this?
You can suggest a correction to this tab. Community and Mods will review your correction and vote to approve or reject it.
comments
print report bad tab
guest
You may want to rate the tab now too:
select rating
Please do not post tabs as comments. Select "correction" instead!