Oops, an error
Loading. Please wait.

Rite Of Our Cross Tab

version 1
version 1

Whole song

Interactive

1,005 views 1 this week
5 commentsread comments
1 2 3 4 5
please rate
add to favorites
launch autoscroll
font size
0
reset
how to read this tab
guitar tuner
Autoscroll
slow
fast
+/-
esc
set tempo
stop
Help us to improve Ultimate-Guitar.com Take our survey!
×
BAND - SATYRICON
ALBUM - NOW,DIABOLICLE
SONG - TRACK 5 - THE RITE OF OUR CROSS
TUNING - Eb (Eb,Bb,Gb,Db,Ab,Eb,

* - palm mute
~ - let note ring
` - trem pick

this tab is 100% accurate,its pretty easy to play.plaz rate..


   intro (clean) riff1
e-----------------------]
b-----------------------]
g-----------------------]
d---0--0-------------4--]
a--2--2--4--2-4-----4---]
e-----------------6-----]

  riff 2
e-------------x3]-----------4th time]
b---------------]-------------------]
g---------------]-------------------]
d----------4-4--]----------8--------]
a------444-4-4--]------888-8--------]
e--2~--222-2-2--]--6~--666-6--10-9--]
       ***             ***

  riff 3 (verse)
e--------------------------------x4]-----------------5th time]
b----------------------------------]-------------------------]
g----------------------------------]---------------------2`--]
d----------------------------------]--333-333-333-333---3`---]
a------444------444------444-------]--333-333-333-333--3`----]
e--2~--222--6~--222--8~--222--3-2--]--111-111-111-111--------]
       ***      ***      ***

                                     riff 4
e--------------------------------x2]-------------x3]-----------------x1]
b----------------------------------]---------------]-------------------]
g----------------------------------]---------------]-------------------]
d----------------------------------]----------4-4--]----------8--------]
a------444------444------444-------]------444-4-4--]------888-8--------]
e--2~--222--6~--222--8~--222--3-2--]--2~--222-2-2--]--6~--666-6--10-9--]
       ***      ***      ***              ***


  riff 5 (chorus)

e------------------------x8]
b--------------------------]
g--------------------------]
d--4~--2--5--4~--2--5--4~--]
a--4~--2--5--4~--2--3--4~--]
e--2~--0--3--2~--0--3--2~--]


verse riff x 2
riff 4 x1
riff 5 (chorus) x8


  riff 6 (interlude)

e------------------x2]--------------------]--------------------]
b--------------------]--------------------]--------------------]
g--------------------]--------------------]--------------------]
d--------------------]--------------------]--------------------]
a---------------4-5--]---------------4-5--]---------------4-5--]
e--7~-7~-7-6-3-6-----]--6~-6~-7-6-3-6-----]--7~-7~-7-6-3-6-----]

e------------------]-------play this section x 3--------]
b------------------]------------------------------------]
g------------------]------------------------------------]
d--8--8------------]------------------------------------]
a--8--8-------4-5--]---------------4-5-------------4-5--]
e--6--6--7-6-3-----]--7~-7~-7-6-3-6-----6~-6~-7-6-3-----]


e----------------------------]
b----------------------------]
g----------------------------]
d----------------------8--8--]
a---------------4-5----8--8--]
e--7~-7~-7-6-3-6-------6--6--]


clean intro x8

  riff 7 (same as riff 2 but slightly different)

e--------------]------------------]
b--------------]------------------]
g--------------]------------------]
d---------4-4--]------------------]
a-----444-4-4--]-----444-2-5-4-3--]
e--2~-222-2-2--]--2~-222-0-3-2-1--]
      ***            *** * * * *

verse x4
riff 7 x1
riff 5 (chorus)x8

  outro


e--------------]--------------------]
b--------------]--------------------]
g--------------]--------------------]
d---------4-4--]--------------------]
a-----444-4-4--]-----444-2-5-4-3-4--]
e--2~-222-2-2--]--2~-222-0-3-2-1-2--]
      ***            *** * * * *



the end. plz rate..im also working on some other black metal songs from
immortal,satyricon etc.ones that i cant find ill post them later.

tabbed by - immortal_stone



Suggest correction
Give kudos to tab author, rate the tab!
1 2 3 4 5
comments
print report bad tab
5 comments total. Showing first comments.
0 reply
Jonis# 47 wrote on May 16 2007, 02:56 pm

I'd like if you could do a tab on Satyricon - That Darkness Shall Be Eternal

0 reply
immortal_stone 461 wrote on May 17 2007, 03:19 am

yeh ill tab it..always happy tabbing black metal that isnt on here
already.

0 reply
Jonis# 47 wrote on May 20 2007, 04:53 pm

yeah, that's good;)

guest
You may want to rate the tab now too:
select rating
Wanna post a correction for this tab? Suggest correction