Oops, an error
Loading. Please wait.

The King Of The Shadowthrone Tab

version 1
version 1

Whole song

Interactive

777 views 1 this week
1 commentread comment
1 2 3 4 5
please rate
add to favorites
launch autoscroll
font size
0
reset
how to read this tab
guitar tuner
Tab Pro tools
  • play this tab
  • loop segment
  • change instrument
  • show fretboard
  • metronome
×
Best way to learn
"The King Of The Shadowthrone"
Autoscroll
slow
fast
+/-
esc
set tempo
stop
Song:The King of the Shadowthrone
Album:The Shadowthrone
Artist:Satyricon
tabbed by:Asbeel@hotmail.com

This album is full of weird groove patterns and numerous guitar 
variations , this song is no different . Use your
ears , I have everything here !! This is the best song on the album in my 
opinion . As always mail me anything you have
to say ...

Key:
v=vibrato
pm=palm mute
h=hammer-on
p=pull-off
/=slide
()=artificial harmonic

Riff 1 x 4 very fast
------------------------------------------
------------------------------------------
------------------------------------------
------------------------------------------
----7--0-5-0-5----------7--0-5-0-5--------
--5------------8-7-8--5------------8-7-0--

Riff 2 x2 almost as fast
------------------------------------------------------------------------
------------------------------------------------------------------------
--/9------------/9------------/9-------------------------9----9-10-9-7--
--/9-99910-9-7--/9-99910-9-7--/9-99910-9-7----9-7-9-10-9----9-----------
--/7-777-8-7-5--/7-777-8-7-5--/7-777-8-7-5--7---------------------------
------------------------------------------------------------------------

Repeat both

Fill 1 Guitar 1
-----------------------------------------------------------------------------
-----------------------------------------------------------------------------
---9-----9-----9-----77777--9-----9-----9-----444444--9-----9----------------
---9-----9-----9-----77777--9-----9-----9-----444444--9-----9------9-10-9-7--
---7-000-7-000-7-000-55555--7-000-7-000-7-000-222222--7-000-7-000--9-10-9-7--
-------------------------------------------------------------------7--8-7-5--

Fill 1 guitar 2
--------------------------------------------------------------------------------------------
--------------------------------------------------------------------------------------------
--------------------------------------------------------------------------------------------
-----------------------------------------------------------------------------------------7--
---777-----777-----777-----55555--777-----777-----777-----22222--777-----777-------------7--
-------555-----555-----555------------555-----555-----555------------555-----555-777-8-7-5--

Riff 3x8 guitar 1 The tempo changes here and Synth comes In but nothing 
changes...
-----------------------
-----------------------
-----------------------
--77777777--88888888---
--77777777--88888888---
--55555555--66666666---

Riff 3x8 guitar 2
---------------------
---------------------
---------------------
--77777777------8----
--77777777----8---8--
--55555555--6--------

Repeat Riff 2

Riff 4 - I could not find a pattern to this part , If you can , then I 
congratulate you . Here's the power chord solo then...
-----------------------------------------------------
-----------------------------------------------------
--9-99-101010--9-99--4-44---9-99-101010--9-99--------
--9-99-101010--9-99--4-44---9-99-101010--9-99--8-88--
--7-77--8-8-8--7-77--2-22---7-77--8-8-8--7-77--8-88--
-----------------------------------------------6-66--

------------------------------------------------------
------------------------------------------------------
--9-991010-12--9-99-9/5-5/4-4--9-99-101010-9-99-------
--9-991010-12--9-99-9/5-5/4-4--9-99-101010-9-99-8-88--
--7-77-8-8-10--7-77-7/3-3/2-2--7-77--8-88--7-77-8-88--
------------------------------------------------6-66--

-----------------------------------------------------
-----------------------------------------------------
--9-99-101010-9-99------9-99-1010-12-9-99-9/5-5/4-4--
--9-99-101010-9-99-5-55-9-99-1010-12-9-99-9/5-5/4-4--
--7-77--8-8-8-7-77-5-55-7-77--8-8-10-7-77-7/3-3/2-2--
-------------------3-33------------------------------

-----------------------------------------------------
-----------------------------------------------------
--9-99-101010--9-99--4-44---9-99-101010--9-99--------
--9-99-101010--9-99--4-44---9-99-101010--9-99--8-88--
--7-77--8-8-8--7-77--2-22---7-77--8-8-8--7-77--8-88--
-----------------------------------------------6-66--

------------------------------
------------------------------
--9-99-101010-9-99-9/5-5/4-4--
--9-99-101010-9-99-9/5-5/4-4--
--7-77--8-8-8-7-77-7/3-3/2-2--
------------------------------

Riff 5 x4 Play as fast as humanly possible for the right effect .
------------------------------------------------------------
------------------------------------------------------------
--99999999--1010101010-141414141414--1313131313-1010101010--
--99999999--1010101010-141414141414--1313131313-1010101010--
--77777777---888888888-121212121212--1111111111--888888888--
------------------------------------------------------------

Riff 6x6
-------------------------------------------------------------------------------------
-------------------------------------------------------------------------------------
--9-9999-9-9999-1010101010-1010101010-14-14141414-14-14141414-13-13131313-13-101010--
--9-9999-9-9999-1010101010-1010101010-14-14141414-14-14141414-13-13131313-13-101010--
--7-7777-7-7777--8-8-8-8-8--8-8-8-8-8-12-12121212-12-12121212-11-11111111-11--8-8-8--
-------------------------------------------------------------------------------------

-----------------------------------------------------------
-----------------------------------------------------------
--9-9999-9-9999-5-5555-5-5-77-9-9999-9-9999-5-5555-5-4-44--
--9-9999-9-9999-5-5555-5-5-77-9-9999-9-9999-5-5555-5-4-44--
--7-7777-7-7777-3-3333-3-3-55-7-7777-7-7777-3-3333-3-2-22--
-----------------------------------------------------------

Riff 6 - This is the little lead part
------------------------------------------------------
--------8----------9-----------13---------------------
------9---------10----------14-----------13-------10--
----9--------10----------14-----------13-------10-----
--7--------8----------12-----------11--------8--------
------------------------------------------------------

Fill 2:
--------------------------------------------------------------------------------
--------------------------------------------------------------------------------
--9-9999-9-9999-1010101010-1010101010-14-14141414-14-14141414-13-13131313-13-9--
--9-9999-9-9999-1010101010-1010101010-14-14141414-14-14141414-13-13131313-13-9--
--7-7777-7-7777--8-8-8-8-8--8-8-8-8-8-12-12121212-12-12121212-11-11111111-11-7--
--------------------------------------------------------------------------------

Acoustic part x4
----------------------------------
--------0----------0---------0----
------2---2------2---2-----2---2--
----2----------2---------2--------
--0----------3---------2----------
----------------------------------

Acoustic Fill
-----------------------------------
-----------------------------------
--------------------0---------0----
------2-----------2---2-----2---2--
----0-----0-----0---------0--------
--3-----2----0----------0----------

Guitar over acoustic :
------------------------------------------
------------------------------------------
------------------------------------------
--7-7777-1010101010-9-9999-7-7777-2-2222--
--7-7777-1010101010-9-9999-7-7777-2-2222--
--5-5555--8-8-8-8-8-7-7777-5-5555-0-0000--

That's It !!!!! No more goddamn typing !!!
comments
We did not receive enough feedback on this tab! Please rate:
print report bad tab
1 2 3 4 5
1 comment total.
0 reply
666filth wrote on July 9 2006, 07:25 am

should b

------------------------------------------------------------------------
------------------------------------------------------------------------
--/9------------/9------------/9-------------------------9----9-10-9-7--
--/9-99910-9-7--/9-99910-9-7--/9-99910-9-7----9-7-9-10-9---10-----------
--/7-777-8-7-5--/7-777-8-7-5--/7-777-8-7-5--7---------------------------
------------------------------------------------------------------------

I want to post or [tab]
guest
You may want to rate the tab now too:
select rating
Please do not post tabs as comments. Select "correction" instead!