Oops, an error
Loading. Please wait.

The Wolfpack Tab

version 1
version 1

Whole song

Interactive

6,980 views 21 this week
no commentswrite comment
1 2 3 4 5
please rate
add to favorites
launch autoscroll
font size
0
reset
how to read this tab
guitar tuner
Autoscroll
slow
fast
+/-
esc
set tempo
stop
Help us to improve Ultimate-Guitar.com Take our survey!
×
Author
Band:  Satyricon
Album: The Age of Nero
Song:  The Wolfpack

Copyright (c)  Roadrunner Records 2008
Version 1.0 - 04.05.2009

Transcribed By: evilkin
Email:          N/A

.  - palm mute           /  - slide up to
\  - slide down to       ~  - vibrato
h  - hammer on           b  - Bend
p  - pull off            Suffixes for bend
t  - tap                 f  - full bend    h - half bend
ph - pinched harmonic    q  - quarter bend t - tap bend
*  - see comment         ^  - Hold bend    r release bend
x  - Stuccatto           ~  - vibrato bend
,  - slight palm mute    () - ghost note, sustained note
"  - tremolo note        <> - Trill

Tuning D G C F A D


RIFF A  let ring                          let ring
|------------------------|----------------------------|
|------------------------|----------------------------|
|----------0-------------|-------------------------4--|
|-------6-----6----------|----------------------6-----|
|------------------------|-------------------6--------|
|--0---------------8-----|--4---5--4---3--4-----------|


RIFF B                                    let ring
--------------------------|--------------------------|
--------------------------|--------------------------|
--------------------------|-----------------------4--|
--------------------------|--------------------6-----|
--------------------------|-----------------6--------|
--0--0--0--0--0--0--0--0--|--4--5--4--3--4-----------|


RIFF C                       
--------------------------|----------------------------|
--------------------------|----------------------------|
--------------------------|----------------------------|
--------------------------|-------------------------3--|
--2--2-----6--5--5--------|----------------3--3--3--1--|
--0--0-----4--3--3-----3--|--3br----3br----1--1--1-----|


RIFF D (acoustic)    let ring whole riff
--0-----------------------|---------------------0----|
--------------------------|--------------------------|
--------------------------|--------------------------|
--------------------------|--------------------------|
--------------------------|--------------------------|
--------------------------|--------------------------|

--------------------------|--------------------------|
--0-----------------------|--------------------------|
--------------------------|--------------------------|
--------------------------|---------------------3----|
--------------------------|--------------------------|
--------------------------|--------------------------|

--------------------------|--------------------------|
--------------------------|--------------------------|
--------------------------|--------------------------|
--2-----------------------|--------------------------|
--------------------------|----------------------3---|
--------------------------|--------------------------|

--------------------------|--------------------------|
--------------------------|--------------------------|
--------------------------|--------------------------|
--------------------------|--------------------------|
--2-----------------------|--------------------------|
--------------------------|--------------------------|


SONG STRUCTURE:

RIFF A 8x
RIFF B 4x
RIFF C 4x
RIFF A 8x
RIFF B 4x
RIFF C 6x
RIFF D 
RIFF C 2x
RIFF D
RIFF C 2x
RIFF B 2x
RIFF A 8x
RIFF C 4x
Suggest correction
Give kudos to tab author, rate the tab!
1 2 3 4 5
comments
print report bad tab
guest
You may want to rate the tab now too:
select rating
Please do not post tabs as comments. Select "correction" instead!