Oops, an error
Loading. Please wait.

Volcano Tab

606 views 1 this week
no commentswrite comment
1 2 3 4 5
please rate
add to favorites
launch autoscroll
font size
0
reset
how to read this tab
guitar tuner
Tab Pro tools
  • play this tab
  • loop segment
  • change instrument
  • show fretboard
  • metronome
×
Best way to learn
"Volcano"
Autoscroll
slow
fast
+/-
esc
set tempo
stop
Contributor
Difficulty
novice
Band:  Satyricon
Album: Volcano
Song:  Black Lava

Copyright (c) Capitol Records
Version 1.0 - 4.8.2006

Transcribed By: Ville Nousiainen
Email:  blackened_81@hotmail.com

.  - palm mute           /  - slide up to
\  - slide down to       ~  - vibrato
h  - hammer on           b  - Bend
p  - pull off            Suffixes for bend
t  - tap                 f  - full bend    h - half bend
ph - pinched harmonic    q  - quarter bend t - tap bend
*  - see comment         ^  - Hold bend    r release bend
x  - Stuccatto           ~  - vibrato bend
,  - slight palm mute    () - ghost note, sustained note
"  - tremolo note        <> - Trill

Tuning D (DGCFAd)

This song is easier to play D#-tuning but i like more D-tuning,
so thats why I use it all the time :)
This is my biggest translation ever...never again...


 Riff 1  x4                                     0:09-0:54
|-------------------------------------------------------|
|-------------------------------------------------------|
|-------------------------------------------------------|
|-3---3---3---3---4---4---4---4---7---7---7---7\6-5\4---|
|-3---3---3---3---4---4---4---4---7---7---7---7\6-5\4---|
|-1---1---1---1---2---2---2---2---5---5---5---5\4-3\2---|

 Riff 2a x4            x4              x3                     x4  0:55-1:23
|--------------|----------------|----------------|-------|----------------|
|--------------|----------------|----------------|-------|----------------|
|-------1------|-------2--------|-------5--------|-------|-------2--------|
|-3---3---3--4-|-4---4---4--5\4-|-7---7---7--8\7-|--7\4--|-4---4---4--5\4-|
|-3-3--------4-|-4-4--------5\4-|-7-7--------8\7-|--7\4--|-4-4--------5\4-|
|-1----------2-|-2----------3\2-|-5----------6\5-|--5\2--|-2----------3\2-|

 Riff 2b x4            x4              x3        1:24-1:44
|--------------|----------------|----------------|-------|
|--------------|----------------|----------------|-------|
|-------1------|-------2--------|-------5--------|-------|
|-3---3---3--4-|-4---4---4--5\4-|-7---7---7--8\7-|--7\4--|
|-3-3--------4-|-4-4--------5\4-|-7-7--------8\7-|--7\4--|
|-1----------2-|-2----------3\2-|-5----------6\5-|--5\2--|

Repeat Riff 2a + riff2b

 Riff 3a x3                                2:45-3:04
|---------------|----------------------------------|
|----6----------|----6-------7---------6-----------|
|--------5------|--------5---8-------------5-------|
|-7----7---7----|-7----7---7-8------7----7---7-3---|
|-7----------7b-|-7----------6------7----------3---|
|-5-------------|-5-----------------5----------1---|

 Riff 3b                                                              3:04-3:24
|-----------------------------------------------------------------------------|
|----6-------------6--------------6-------------6-------7--------6------------|
|--------5-------------5--------------5-------------5---8------------5--------|
|-7----7---7----7----7---7-----7----7---7----7----7---7-8-----7----7---7-3----|
|-7----------7b-7----------7ph-7----------7b-7----------6-----7----------3----|
|-5-------------5--------------5-------------5----------------5----------1----|


 Riff 3c                                  3:25-3:40
|-------------------------------------------------|
|---6------------6-------7--7b----6---------------|
|-------5------------5---8--8b--------5-----------|
|-7---7---7----7---7---7-8--8b--7---7---7-x\---3--|
|-7---------7b-7---------6--6b--7---------x\---3--|
|-5------------5----------------5--------------1--|

 Riff 4a x4          3:41-3:59
|----------------------------|
|---0------------------------|
|-1---1---1-0-------2--------|
|-------------2-------4-3-3--|
|---------------4------------|
|-------1-------2-1----------|

 Riff 4b x8  4:00-4:22
|------------------|
|---0--------------|
|-1---1---1-2------|
|-------------4----|
|------------------|
|-------1-------1--|

Repeat Riff 4a + Riff 4b

 Riff 5  x3                      4:54-6:52
|-----------------|----------------------|
|----4-----7-6----|-11--11-11-11-12-12-7-|
|--------------7--|-12--12-12-12-13-13-8-|
|-4----4----------|----------------------|
|-6------6--------|----------------------|
|-----------------|----------------------|

|--------------------------------------------------------|
|----4-----7-6b----4-----7-9b----4-----7-6b---4-7-4------|
|-----------------------------------------------------5--|
|-4----4--------4----4--------4----4--------4-------7----|
|-6------6------6------6------6------6------6------------|
|--------------------------------------------------------|

Repeat Riff 5 x3


 Riff 6 x2         6:53-7:07
|--------------------------|
|--------------------------|
|--------------------------|
|-4--4--4--4--4--4--4\3-3--|
|-6--6--6--6--6--6--6\5-5--|
|--------------------------|

 Riff 7                                  7:08-7:22
|------------------------------------------------|
|------------------------------------------------|
|------------------------------------------------|
|-4-----4-----4-----3-----4-----4-----4-----3/6--|
|-6-----6-----6-----5-----6-----6-----6-----5/8--|
|-6-----6-----6-----5-----6-----6-----6-----5/8--|

 Riff 6  x2        7:23-7:37
|--------------------------|
|--------------------------|
|--------------------------|
|-4--4--4--4--4--4--4\3-3--|
|-6--6--6--6--6--6--6\5-5--|
|--------------------------|

 Riff 8  x4                      x6   7:38-8:22
|----------------------|----------------------|
|----------------------|-6----6-6-6-5-5---5---|
|-6----6-6-6-5-5---5---|-6----6-6-6-5-5-6-5---|
|----------------7-----|----------------7-----|
|----------------------|----------------------|
|----------------------|----------------------|

 Riff 9a x4    8:23-8:39                          x2               8:40-8:56
|-------------------------|-------------------------------------------------|
|-------------------------|-------------------------------------------------|
|-------3------------3-6b-|-------3------------3-6~-------3------------3----|
|-5-5-5---5-(5)--5-5------|-5-5-5---5-(5)--5-5------5-5-5---5-(5)--5-5---4~-|
|-------------------------|-------------------------------------------------|
|-------------------------|-------------------------------------------------|
                                                 8:57-9:05
|--------------------------------------------------------|
|--------------------------------------------------------|
|-------3------------3-6<7>--------3------------3--------|
|-5-5-5---5-(5)--5-5---------5-5-5---5-(5)--5-5---4~-----|
|--------------------------------------------------------|
|--------------------------------------------------------|
                                           9:06-9:14
|--------------------------------------------------|
|--------------------------------------------------|
|-------3------------3-6~-------3------------3-----|
|-5-5-5---5-(5)--5-5------5-5-5---5-(5)--5-5---4~--|
|-5-5-5---5-(5)--5-5------5-5-5---5-(5)--5-5-------|
|--------------------------------------------------|

Repeat riff 9a

 Riff 9b  x4    10:08-10:23
|-------------------------|
|-------------------------|
|-------3-----------3-6b--|
|-5-5-5---5-(5)-5-5-------|
|-------------------------|
|-------------------------|

 Riff 8  x4  10:24-10:41        x6  10:42-11:07
|----------------------|----------------------|
|----------------------|-6----6-6-6-5-5---5---|
|-6----6-6-6-5-5---5---|-6----6-6-6-5-5-6-5---|
|----------------7-----|----------------7-----|
|----------------------|----------------------|
|----------------------|----------------------|

 Riff 6  x2      11:08-11:22
|--------------------------|
|--------------------------|
|--------------------------|
|-4--4--4--4--4--4--4\3-3--|
|-6--6--6--6--6--6--6\5-5--|
|--------------------------|

 Riff 7                                11:23-11:37
|------------------------------------------------|
|------------------------------------------------|
|------------------------------------------------|
|-4-----4-----4-----3-----4-----4-----4-----3/6--|
|-6-----6-----6-----5-----6-----6-----6-----5/8--|
|-6-----6-----6-----5-----6-----6-----6-----5/8--|

 Riff 6  x2      11:38-11:53
|--------------------------|
|--------------------------|
|--------------------------|
|-4--4--4--4--4--4--4\3-3--|
|-6--6--6--6--6--6--6\5-5--|
|--------------------------|

 Riff 5  play x6 then it fade out  11:54-14:23
       x3
|-----------------|----------------------|
|----4-----7-6----|-11--11-11-11-12-12-7-|
|--------------7--|-12--12-12-12-13-13-8-|
|-4----4----------|----------------------|
|-6------6--------|----------------------|
|-----------------|----------------------|

|--------------------------------------------------------|
|----4-----7-6b----4-----7-9b----4-----7-6b---4-7-4------|
|-----------------------------------------------------5--|
|-4----4--------4----4--------4----4--------4-------7----|
|-6------6------6------6------6------6------6------------|
|--------------------------------------------------------|

END
comments
We did not receive enough feedback on this tab! Please rate:
print report bad tab
1 2 3 4 5
I want to post or [tab]
guest
You may want to rate the tab now too:
select rating
Please do not post tabs as comments. Select "correction" instead!