Oops, an error
Loading. Please wait.

Woods To Eternity Tab

984 views 1 this week
no commentswrite comment
1 2 3 4 5
please rate
add to favorites
launch autoscroll
font size
0
reset
how to read this tab
guitar tuner
Tab Pro tools
  • play this tab
  • loop segment
  • change instrument
  • show fretboard
  • metronome
×
Best way to learn
"Woods To Eternity"
Autoscroll
slow
fast
+/-
esc
set tempo
stop
Song:Woods to Eternity
Artist:Satyricon
Album:The Shadowthrone
Tabbed by:Asbeel@Hotmail.com


1.Hello everyone , I'll be doing ALOT of Satyricon tabs from now on . I 
can't seem to find but
a few so I figure I'll just fuckin do 'em all myself!! Seriously though , no 
one gives
the "The Shadowthrone" the respect It deserves. As usual 
corrections/comments can be mailed.

Key:
p=pull-off
h=hammer-on
/=slide
....=tremelo picking
pm=palm mute

Riff 1a Riff 1b
------------------------------/-----------------------------
------------------------------/-----------------------------
------------------------------/-----------------------------
---4-4-4-4-4-4-4-4--6-6--7-7--/--7-7-7-7-7-7--6-6-7-7-6-6---
---4-4-4-4-4-4-4-4--6-6--7-7--/--7-7-7-7-7-7--6-6-7-7-6-6---
---2-2-2-2-2-2-2-2--4-4--5-5--/--5-5-5-5-5-5--4-4-5-5-4-4---
(1a x3 + 1b x1)x4

Fill 1x4
---------------------
---------------------
----------------7..--
-----------6..-------
------5..------------
--0..----------------

Riff 2x8
-----------------------------------------------------------
-----------------------------------------------------------
-----------------------------------------------------------
-----------------------------------------------------------
-----------------------------------------------------------
---77777--4444--77777--44444--77777--44444---888888888888--

Riff 3x8
------------------------------------------------------------------------
------------------------------------------------------------------------
--8-8-8-8-8-8--6-6-6-6-6-6--8-8-8-8-8-8--9-9-9--8-8-8--12-12-12--9-9-9--
--8-8-8-8-8-8--6-6-6-6-6-6--8-8-8-8-8-8--9-9-9--8-8-8--12-12-12--9-9-9--
--6-6-6-6-6-6--4-4-4-4-4-4--6-6-6-6-6-6--7-7-7--6-6-6--10-10-10--7-7-7--
------------------------------------------------------------------------

Riff 4x8
-------------------------------------------------------------------------------
-------------------------------------------------------------------------------
------------7..----------------7..------------5..--6..--5..-----5..--6..--5..--
--------6..------6..-------6..-----6..----7..---------------7..----------------
---5..----------------5..------------------------------------------------------
-------------------------------------------------------------------------------

Incredibly bad-ass classical guitar part
--------------------------------------------------------
--------------------------------------------------------
-----7-----7-------7-----7----------5------------5------
--------7-------------7----------6-----6------6-----6---
--0------------0----------------------------------------
-----------------------------0-------------0------------

Classical solo
------------------------------------------------------------------
------------------------------------------------------------------
------------------------------------------------------------------
--------10--9--7-7------10--9--7--7----7---9---10---9h10---7--7---
----0----------------0--------------------------------------------
------------------------------------------------------------------

----------------------------------------------------------------------
----------------------------------------------------------------------
------------------------------------------------10--9--10--7--10---4--
--10--9--7--9--10---7-------------------------------------------------
--------------------------------7--8--7--5--7-------------------------
----------------------------0-----------------------------------------

Chords that go over classical part
-------------------------------------------
-------------------------------------------
-------------------------------------------
---6--6-6-6--6-6-6-6-----------------------
---4--4-4-4--4-4-4-4--5--5-5-5--5--5-5-5---
----------------------3--3-3-3--3--3-3-3---

Riff 5 x4
-----------------------------------------
-----------------------------------------
-----------------------------------------
---6--6-6---4--4-4--6--6-6---10--9--7----
---4--4-4---2--2-2--4--4-4---8---7--5----
-----------------------------------------

Riff 6x4
-------------------------
-------------------------
-------------------------
--6--6-6-6-6--4--4-4-----
--4--4-4-4-4--2--2-2--5--
----------------------3--

Fill 2 (over Keyboard)
---------------------
---------------------
---------------------
----7---8--------5---
----5---6--------3---
-------------/-------

Riff 7a
-------------------------------------------
-------------------------------------------
-------------------------------------------
---7777777--8888888--777777777--555555555--
---5555555--6666666--555555555--333333333--
-------------------------------------------

Riff 7b
-------------------------------------------
-------------------------------------------
-------------------------------------------
-------------------------------------------
---7777777--8888888--777777777--555555555--
---5555555--6666666--555555555--333333333--

That's all folks , the arrangements not hard , You can figure It out . More 
to come.
comments
We did not receive enough feedback on this tab! Please rate:
print report bad tab
1 2 3 4 5
I want to post or [tab]
guest
You may want to rate the tab now too:
select rating
Please do not post tabs as comments. Select "correction" instead!