Oops, an error
Loading. Please wait.

Tertulia En El Bosque Tab

39 views 1 this week
no commentswrite comment
1 2 3 4 5
3 more votes to show rating
add to favorites
launch autoscroll
font size
0
reset
how to read this tab
guitar tuner
×
Best way to learn
"Tertulia En El Bosque"
Autoscroll
slow
fast
+/-
esc
set tempo
stop
Intro: (00:01)

    Dm            Dm            Gm            F
e|--5-------------5-------------3------3------1------1------|
B|--6------6------6------6------3----3---3----1----1---1----|
G|--7----7---7----7----7---7----3--3-------3--2--2-------2--|
D|--7--7-------7--7--7-------7--5-------------3-------------|
A|--5-------------5-------------5-------------3-------------|
E|----------------------------------------------------------|

                                                               x2
    C             Am            A#            A#
e|----------------0------0------1-------------1-------------|/
B|--1------1------1----1---1----3------3------3------3------|
G|--0----0---0----2--2-------2--3----3---3----3----3---3----|
D|--2--2-------2--2-------------3--3-------3--3--3-------3--|
A|--3-------------0-------------1-------------1-------------|
E|----------------------------------------------------------|


(00:40)

    Dm            Dm            A#            A#
e|--5-------------5-------------1-------------1-------------|
B|--6------6------6------6------3------3------3------3------|
G|--7----7---7----7----7---7----3----3---3----3----3---3----|
D|--7--7-------7--7--7-------7--3--3-------3--3--3-------3--|
A|--5-------------5-------------1-------------1-------------|
E|----------------------------------------------------------|
    Dm            Dm            A#            A#
e|--5-------------5-------------1-------------1-------------|
B|--6------6------6------6------3------3------3------3------|
G|--7----7---7----7----7---7----3----3---3----3----3---3----|
D|--7--7-------7--7--7-------7--3--3-------3--3--3-------3--|
A|--5-------------5-------------1-------------1-------------|
E|----------------------------------------------------------|


 Dm     Dm      Am      Am
Cantaaaaas en silenciooooo.
 Dm       Dm        Am
Tuuu vieeeeeja cancióoon.


      Dm    Dm     Dm
En algún lugar habrá
          Dm     Dm      Dm
alguien que quiera escuchar
      Dm         C           Dm
las eternas melodías del juglar...


 Dm        Dm       Am       Am
Veeeenceeee  tu agonííííííaaaaa.
  Dm            Dm         Am     Am
Vueeeeelveeeee aaaa  ser felíííííííz.


          F      F     F
Que los reinos broten paz
      Dm     Dm  Dm
y se logre iluminar
      C             C         Dm
el recuerdo de tu anónimo cantaaaaaaar...


D      F
Oh..., oh...,
D      F
Oh..., oh...,
D      F
Oh..., oh...,
D      F
Oh..., oh...,


Dm  Dm  Dm  Dm   G# G# G# G#
A-llen-de  mas  vi-di-es-te

 Dm Dm   Dm  Dm   G# G# G#
So-des  ju-glar  ca he vos

 Dm Dm  Dm Dm    G#  G#    G#  G#
RE-mem-bra-DO  vues-tra  esto-ria

 Dm Dm     Dm  Dm    G#  G# G#
Su-ce et  ban-do   tred de-sí


D      F
Oh..., oh...,
D      F
Oh..., oh...,
D      F
Oh..., oh...,
D      F
Oh..., oh...,


    A#            A#            Am            Am          C   Dm
e|--1-------------1-------------0------0------0------0----0.--5XXXXX--|
B|--3------3------3------3------1----1---1----1----1------1.--6XXXXX--|
G|--3----3---3----3----3---3----2--2-------2--2--2--------0.--7XXXXX--|
D|--3--3-------3--3--3-------3--2-------------2-----------2.--7XXXXX--|
A|--1-------------1-------------0-------------0-----------3.--5XXXXX--|
E|--------------------------------------------------------------------|


Fin...???? (Muy pronto mas canciones de Surom)

Dedicado a:

Una vez mas a mi kerida "Comuna" (Raziel,Gaby,Moza,Kelpy,Mago,
                                   Hanem,Kijos,Panke y muchos mas...)
Suggest correction
Give kudos to tab author, rate the tab!
1 2 3 4 5
comments
print report bad tab
guest
You may want to rate the tab now too:
select rating
Wanna post a correction for this tab? Suggest correction