Oops, an error
Loading. Please wait.

Awinja chords

421 views 3 this week
no commentswrite comment
1 2 3 4 5
3 more votes to show rating
add to favorites
×
Save as Personal and add changes to this tab that will be seen only by you. Learn more ›
×
You can save this tab as Personal to edit and correct it or add notes. All changes will be seen only by you. Learn more »
launch autoscroll
font size
0
reset
transpose
0
reset
simplify chords
display chords
guitar tuner
edit
Autoscroll
slow
fast
+/-
esc
set tempo
stop
Strumming
There is no strumming pattern for this song yet. and get +5 IQ
[Intro]

e|------------------------------------------|----------------------------------------|
B|-----------------------1--------1------0--|--------0--------------1------1------1--|
G|---------1-----------------------------1--|-----1----------------------------2-----|
D|------2-------------2-----0h2------2------|--------------------2-----0h2-----------|
A|--0---------2---3-------------------------|-----------0h2--0-----------------------|
E|------------------------------------------|-0--------------------------------------|

e|------------------------1-----------------|--------0-------------0-----------------|
B|---------------------------1-------1------|-3---------3---1---1-----1----------1---|
G|---------1-----------2---------2----------|-----------------------------0----------|
D|------2-----0h2--0------------------------|-----0---------------------------2------|
A|--0---------------------------------------|---------------3------------------------|
E|-----------------------------------0------|-3--------------------------------------|

e|------------------------------------------|----------------------------------------|
B|-----------------------1--------1------0--|--------0--------------1-------------1--|
G|---------1-----------------------------1--|-----1------------------------2---------|
D|------2-------------2-----0h2------2------|--------------------2-----0h2-----0-----|
A|--0---------2---3-------------------------|-----------0h2--0-----------------------|
E|------------------------------------------|-0--------------------------------------|

e|------------------------1-----------------|--------0-------------0-----------------|
B|---------------------------1-------1------|-3---------3---1---1-----1--------------|
G|---------1-----------2---------2----------|-----------------------------0------1---|
D|------2-----0h2--0------------------------|-----0---------------------------2------|
A|--0---------------------------------------|---------------3------------------------|
E|-----------------------------------0------|-3--------------------------------------|

[Verse]

Am7     C        E7     Am7
Awinja Awinja ambaa bwaangu
Am7        Dm7
Abana bandebaanga
   G         C 
atsile hena Mama
Am7     C        E7     Am7
Awinja Awinja ambaa bwaangu
Am7        Dm7
Abana bandebaanga
   G         C 
atsile hena Mama

Am7  Dm7  E7  C
 
Am7     Dm7  G   C
       Uuuuuuuuuhu

Am7         C        E7     Am7
Mbonji nikhulinda ambaa bwaanguu
Am7        Dm7
Syakhulia syiyile
   G         C 
Utsile hena Mama
Am7         C        E7     Am7
Mbonji nikhulinda, ambaa bwaanguu
Am7        Dm7
Imbula ikhubanga
   G         C 
Utsile hena Mamaa

[Chorus]

Am7       Dm7   G       C
Uuuhu Awinjaa ambaa bwaangu
Am7        Dm7
Abana bandebaanga
     G        C
atsile hena Mamaa
Am7       Dm7   G       C
Uuuhu Awinjaa ambaa bwaangu
Am7       Dm7
Abana bandebaanga
     G        C
atsile hena Mamaa

[Verse]

          Am7       C         E7         Am7
Ooo banga Sai bandebaanga (atsile hena mamaa)
         Am7        Dm7
Ooo banga Heleni bandebaangaa
     G         C 
(atsile hena mama)
          Am7          C            E7       Am7
Ooo banga Bekhuta bandebaangaa (atsile hena mama)
    Am7         Dm7
Abasikhale bandebaanga 
     G         C 
(atsile hena Mamaa)

Am7       C
uuuhu Awinja (uuuhu Awinja)
Dm7      Am7
uuuhu Awinja (uuuhu Awinja)
 Am7       Dm7        G         Am7
Abana bandebaanga atsile hena mamaa
Am7       C
uuuhu Awinja (uuuhu Awinja)
E7      Am7
uuuhu Awinja (uuuhu Awinja)
 Am7       Dm7        G         Am7
Abana bandebaanga atsile hena mamaa

[Chorus]

Am7       Dm7   G       C
Uuuhu Awinjaa ambaa bwaangu
Am7       Dm7
Abana bandebaanga
     G        C
atsile hena Mamaa
Am7       Dm7   G       C
Uuuhu Awinjaa ambaa bwaangu
Am7       Dm7
Abana bandebaanga
     G        C
atsile hena Mamaa

[Bridge]

   F  C      G   C       F        C       G   C
Eeaeee oo  Awinja waa Awinja wawa wawa Awinja yee

 F          C             G     C
(Tshalalala lalala lalala lalalalalalala
F            C         G       C
Undeshi ndibutswa amba amba Awinja) X3


Am7     C        E7     Am7
Awinja Awinja ambaa bwaangu
Am7        Dm7        G         C 
Abana bandebaanga atsile hena Mama
Am7     C        E7     Am7
Awinja Awinja ambaa bwaangu
Am7        Dm7        G         C 
Abana bandebaanga atsile hena Mama

[Chorus]

Am7       Dm7   G       C
Uuuhu Awinjaa ambaa bwaangu
Am7       Dm7
Abana bandebaanga
     G        C
Am7       Dm7   G       C
Uuuhu Awinjaa ambaa bwaangu
Am7       Dm7
Abana bandebaanga
     G        C
atsile hena Mamaa


[Outro]

Am7  Dm7  E7  C

Am7  Dm7  E7  C

        F   C          G   C
Weyeyeyeye woo weyeyeyeye woo (Repeats while fading away)

************************************

| h   Hammer-on

************************************ 

            
            
Suggest correction
Creating personal tab
Creating personal tab
You can edit any tab online and save it as your Personal.

You can edit, replace or remove any tab part or add personal notes – all changes will be seen only by you.

Personal tabs can be accessed anytime from any device, even offline.
Learn more »
Give kudos to tab author, rate the tab!
1 2 3 4 5
comments
print report bad tab
guest
You may want to rate the tab now too:
select rating
Wanna post a correction for this tab? Suggest correction