Oops, an error
Loading. Please wait.

Satans Crown Tab

13 views 1 this week
no commentswrite comment
1 2 3 4 5
3 more votes to show rating
add to favorites
launch autoscroll
font size
0
reset
how to read this tab
guitar tuner
Autoscroll
slow
fast
+/-
esc
set tempo
stop
Help us to improve Ultimate-Guitar.com Take our survey!
×
Author
Difficulty
[Intro]

e|0-5-7-0-7-8-0-5-7-0-3-5-2-3-2-3-0-5-7-0-7-8-0-5-7-0-3-5-0-2-3-2------------|
B|---------------------------------------------------------------------------|
G|---------------------------------------------------------------------------|
D|---------------------------------------------------------------------------|
A|---------------------------------------------------------------------------|
E|---------------------------------------------------------------------------|

e|---------------------------------------------------------------------------|
B|---------------------------------------------------------------------------|
G|-----7---------------------------------------------------------------------|
D|2----7----7----5--4--------------------------------------------------------|
A|2----5----7----5--4--------------------------------------------------------|
E|0---------5----3--2--------------------------------------------------------|


[Verse]

e|---------------------------------------------------------------------------------------------------|
B|---------------------------------------------------------------------------------------------------|
G|---------------------------------------------------------------------------------------------------|
D|---------------------------------------------------------------------------------------------------|
A|2---------------------------------------5-------5-------5-5/7\5------------------------------------|
E|0--0-0-0-0-0-0-0-0-0-0-0-0-0-0-0-0-0-0--3--0-0--3--0-0--3-3/5\3------------------------------------|


[Chorus]

e|---------------------------------------------------------------------------------------------------|
B|---------------------------------------------------------------------------------------------------|
G|---------------------------------------------------------------------------------------------------|
D|---------------------------------------------------------------------------------------------------|
A|9-9-9--------10-9-7-9-7-5-2-----------------------7-5---7-2----------------------5-----7-----------|
E|7-7-7--------8--7-5-7-5-3-0--0-0-0-0-0-0-0-0-0-0--5-3p0-5-0--0-0-0-0-0-0-0-0-0-0-3-0-0-5-----------|


[Bridge]

e|------------------------------------------------------------------------------|
B|------------------------------------------------------------------------------|
G|------------------------------------------------------------------------------|
D|----9-------------------------------------------------------------------------|
A|----7----5/7/8\7-------10---12-9-12-------------------------------------------|
E|0-0---------------0-0--8----10-7-10-------------------------------------------|


[Lead Post Solo]

e|---------------------------------------------------------------------------|
B|---------------------------------------------------------------------------|
G|---------------------------------------------------------------------------|
D|----------------------------------------------10-9-7-----------------------|
A|2-7-9-10-9-7-9-10-9-7-9-10-9-7-2-7-9-10-9-7-9--------10-9-8-7\-------------|
E|0------------------------------0-------------------------------------------|


************************************

| p  Pull-off
| /  Slide up
| \  Slide down

************************************
Suggest correction
Give kudos to tab author, rate the tab!
1 2 3 4 5
comments
print report bad tab
guest
You may want to rate the tab now too:
select rating
Wanna post a correction for this tab? Suggest correction