Oops, an error
Loading. Please wait.

Shut Up bass

by Savages
7,812 views 27 this week
1 commentread comment
1 2 3 4 5
x 5
add to favorites
×
Save as Personal and add changes to this tab that will be seen only by you. Learn more ›
×
You can save this tab as Personal to edit and correct it or add notes. All changes will be seen only by you. Learn more »
launch autoscroll
font size
0
reset
guitar tuner
edit
Autoscroll
slow
fast
+/-
esc
set tempo
stop
Author
-------------------------------------------------------------------------------
                             SHUT UP - Savages
-------------------------------------------------------------------------------
Tabbed by: cherbaja
E-mail: cherbaja@gmail.com

Tuning: Standard
Use a pick.

Main riff, 1st time:

G|-----------------------------------------------------------------|
D|---------------------3-3-3-2---2-3-------------------------------|
A|-2-0-2-5-5-0-2---2-2---------------0-2-5-0-2---------------------|
E|---------------------------------------------3---3-3-3-0-3-3---3-|

After that:

G|-----------------------------------------------------------------|
D|---------------------3-3-3-2---2-3-------------------------------|
A|-2-0-2-5-0-1-2---2-2---------------0-2-5-0-2---------------------|
E|---------------------------------------------3---3-3-3-0-3-3---3-|

Starting at end of last refrain:

G|---------------------------------------------|
D|---------------------------------------------|
A|-2-0-2-5-0-1-2-2-2-2-2-2-2-2-2-2-2-2-2-2-1-1-|
E|---------------------------------------------|

G|---------------------------------|
D|---------------------------------|
A|-2-2-2-2-2-2-2-2-2-2-2-2-2-2-1-1-|
E|---------------------------------| x2

G|---------------------------------|
D|---------------------------------|
A|-2-2-2-2-2-2-2-2-2-2-2-2-2-2-2-2-|
E|---------------------------------|

Ending:

G|-----------------------------------------------------------------|
D|-----------------------------------------------------------------|
A|-2-2-2-2-2-2-2-2-2-2-2-2-2-2-2-2-5-5-5-5-5-5-5-5-5-5-5-5-5-5-5-5-|
E|-----------------------------------------------------------------|

G|-----------------------------------------------------------------|
D|-----------------------------------------------------------------|
A|---------------------------------7-7-7-7-7-7-7-7-7-7-7-7-7-7-7-7-|
E|-5-5-5-5-5-5-5-5-5-5-5-5-5-5-5-5---------------------------------| x2


G|-----------------------------------------------------------------|
D|---------------------------------3-3-3-3-3-3-3-3-3-3-3-3-3-3-3-3-|
A|-2-2-2-2-2-2-2-2-2-2-2-2-2-2-2-2---------------------------------|
E|-----------------------------------------------------------------|

G|-----------------------------------------------------------------|
D|-2-2-2-2-2-2-2-2-2-2-2-2-2-2-2-2-5-5-5-5-5-5-5-5-7-7-7-7-7-7-----|
A|-------------------------------------------------------------7\--|
E|-----------------------------------------------------------------| Repeat, starting at "Ending"


| /  slide up
| \  slide down
| h  hammer-on
| p  pull-off
| ~  vibrato
| +  harmonic
| x  Mute note
===============================================================================
Suggest correction
Creating personal tab
Creating personal tab
You can edit any tab online and save it as your Personal.

You can edit, replace or remove any tab part or add personal notes – all changes will be seen only by you.

Personal tabs can be accessed anytime from any device, even offline.
Learn more »
comments
print report bad tab
1 comment total.
0 reply
OpethDTMastodon 10 Sep 07, 2014 12:18 PM

I really love this riff. Well done!

guest
You may want to rate the tab now too:
select rating
Wanna post a correction for this tab? Suggest correction