Oops, an error
Loading. Please wait.

24 Hours Ago Bass Tab

version 1
version 1

Whole song

Interactive

1,077 views 1 this week
no commentswrite comment
1 2 3 4 5
3 more votes to show rating
add to favorites
launch autoscroll
font size
0
reset
guitar tuner
Autoscroll
slow
fast
+/-
esc
set tempo
stop
Help us to improve Ultimate-Guitar.com Take our survey!
×
Author
|----------------------------------------|				
|----------------Savatage----------------|
|--------------24-Hours-Ago--------------|
|----Hall-Of-The-Mountain-King-(1987)----|
|----------------------------------------|


Tempo: 123 BPM (approx.)
Tuning: down 1 step (D G C F)


------
Riffs:
------

Intro/Re-Intro/Bridge                                  The bass don't play the higher notes.
                                                           But, if you want to play them:

     S S S S S S Q. Q   S S S S S S Q. Q               S S S S S S Q. Q   S S S S S S E E  E Q
F|-|------------------|------------------|           |------------------|----------------------|
C|4|-------------R--R-|-------------R--R-|           |-------------8--7-|-------------8-10-8-7-|
G|4|-0-0-0-0-0-0------|-0-0-0-0-0-0------|           |-0-0-0-0-0-0------|-0-0-0-0-0-0----------|
D|-|------------------|------------------|           |------------------|----------------------|


Verse

      W    W
F|-|---|-----|
C|4|---|-----|
G|4|-0-|-(0)-|
D|-|---|-----|


Pre-Chorus A

     E S E E Q E   Q  Q  Q  E Q.
F|-|-------------|--------------|
C|4|-------------|--------------|
G|4|-----------R-|----------R-1-|
D|-|-3-3-3-1-3---|-3--1--3------|
                   |--3--|
                   .  .  .

Pre-Chorus B

     W   H  H
F|-|---|------|
C|4|---|------|
G|4|---|----6-|
D|-|-3-|-1----|


Chorus
		      
      E E E E E E E E 4x W    W
F|-|-------------------|---|-----|
C|4|o-----------------o|---|-----|
G|4|o-5-5-5-5-5-5-5-0-o|-3-|-(3)-|
D|-|-------------------|---|-----|


Interlude

     Q  E. S E  Q  Q  E. S E  Q
F|-|----------------------------|
C|7|----5-------5-----5-------5-|
G|4|----------------------------|
D|-|-3-----3-3-----3-----3-3----|
     .             .

Outro

     E E E S E S E E E
F|-|-------------------|
C|4|-------------------|
G|4|-------3---------3-|
D|-|-5-3-5---5-5-3-5---|


----------
Structure:
----------
Intro         4x
Verse         1x
Bridge        1x
Verse         1x
Bridge        2x
Pre-Chorus A  2x
Bridge        2x
Pre-Chorus B  1x
Chorus        1x
Re-Intro      2x
Verse         1x
Bridge        1x
Verse         1x
Bridge        2x
Pre-Chorus A  2x
Bridge        2x
Pre-Chorus B  1x
Chorus        1x
Re-Intro      4x
Interlude     2x
Bridge        2x
Interlude     2x
Bridge        2x
Pre-Chorus B  1x
Chorus        1x
Outro         ? -> repeat until the end of the song


------------
Description
------------
W     - whole notes
H     - half notes
Q     - quarter notes
E     - 8th notess
S     - 16th notes
.     - note dotted (e.g. "E." or "Q.")
(x)   - let ring the note
R     - pause
|-x-| - tuplet

|4|
|4| -> Time Signature (e.g. stands for 4/4)

|o -> repeat start
o| -> repeat end

. (stands under the tabulature) -> staccato note
Suggest correction
Give kudos to tab author, rate the tab!
1 2 3 4 5
comments
print report bad tab
guest
You may want to rate the tab now too:
select rating
Wanna post a correction for this tab? Suggest correction