Oops, an error
Loading. Please wait.

Believe Tab

version 1
version 1

Whole song

Interactive

235 views 12 this week
no commentswrite comment
1 2 3 4 5
3 more votes to show rating
add to favorites
launch autoscroll
font size
0
reset
how to read this tab
guitar tuner
Autoscroll
slow
fast
+/-
esc
set tempo
stop
Help us to improve Ultimate-Guitar.com Take our survey!
×
Author
Difficulty
advanced
One of Savatage and Criss Oliva's finest works, This song is a true masterpiece, and it was a pleasure to tab
out for all of you! Savatage Rocks! This tab is by King Kenroy

It Starts out with Just Jon on Piano



So after all those one night stands
You've ended up with heart in hand
A child alone
On your own
Retreating

Regretful for the things you're not
And all the things you haven't got
Without a home
A heart of stone
Lies bleeding

And for all the roads you followed
And for all you did not find
And for all the things you had to leave behind

I am the way
I am the light
I am the dark inside the night
I hear your hopes
I feel your dreams
And in the dark I hear your screams
Don't turn away
Just take my hand
And when you make your final stand
I'll be right there
I'll never leave
All I ask of you
Believe
(Drums kick in)

(Pick Slide)

e|--------------------------------------------------------------------------------------------|
B|--------------------------------------------------------------------------------------------|
G|--5---------------------------------------3-------------------------------------------------|
D|--5------------------------5--------------3-------------------------3-----------------------|
A|--3------------------------5--------------1-------------------------3-----------------------|
E|---------------------------3----------------------------------------1-----------------------|

    Your childhood eyes were so intense     While bartering your innocence



e|--------------------------------------------------------------------------------------------|
B|--------------------------------------------------------------------------------------------|
G|------5-------------------------------------------------------------------------------------|
D|------5----------------------5-----------------------3~-------------------------------------|
A|------3----------------------5-----------------------3~-------------------------------------|
E|-----------------------------3-----------------------1~-------------------------------------|

    For bits of string    The grown-up wings       You needed


e|--------------------------------------------------------------------------------------------|
B|--------------------------------------------------------------------------------------------|
G|-----5----------------------------------3---------------------------------------------------|
D|-----5---------------5------------------3-------------------------3-------------------------|
A|-----3---------------5------------------1-------------------------3-------------------------|
E|---------------------3--------------------------------------------1-------------------------|
  But when you had to add them up    You found that there were not enough


e|--------------------------------------------------------------------------------------------|
B|--------------------------------------------------------------------------------------------|
G|-------5------------------------------------------------------------------------------------|
D|-------5--------------------------5-----------------------3---------------------------------|
A|-------3--------------------------5-----------------------3---------------------------------|
E|----------------------------------3-----------------------1---------------------------------|

      To get you in            Pay for sins             Repeated

e|--------------------------------------------------------------------------------------------|
B|----8~--------------8------8------8------8-----8--------------------------------------------|
G|----7~--------------7--------------------7-----7--------------------------------------------|
D|----5~--------------5------5------5------5-----5--------------------------------------------|
A|--------------------------------------------------------------------------------------------|
E|--------------------------------------------------------------------------------------------|
             And for all the years you borrowed    

e|--------------------------------------------------------------------------------------------|
B|-----6~--------------6------6-----6------6-----6--------------------------------------------|
G|-----5~--------------5-------------------5-----5--------------------------------------------|
D|-----3~--------------3------3-----3------3-----3--------------------------------------------|
A|--------------------------------------------------------------------------------------------|
E|--------------------------------------------------------------------------------------------|

        And for all the tears you cried

e|-----------7b8------------------------------------------------------------------------------|
B|-----8~--------8--------------------------------------6-------------------------------------|
G|-----7~----------7~~----------------------------------5-------------------------------------|
D|-----5~-----------------------------------------------3-------------------------------------|
A|--------------------------------------------------------------------------------------------|
E|--------------------------------------------------------------------------------------------|
    And for all the fears you had to keep inside       Yeah!



Here Comes the Chorus, Have fun with this part, Its the easiest the song is going to get!



e|-----------------------------------------------------------------------------|
B|-----------------------------------------------------------------------------|
G|--5-----------------------------2--------------------------------------------|
D|--5--------5--------------------2------------------3--------------5----------|
A|--3--------5--------------------0------------------3--------------5----------|
E|-----------3---------------------------------------1--------------3----------|
    I am the way        I am the light      I am the dark inside the night

e|--------------------------------------------------------------------------------------------------|
B|--------------------------------------------------------------------------------------------------|
G|---5-----------------------------------------------2-------------------------------------------5--|
D|---5---------------5-------------------------------2------------------3----------------5-------5--|
A|---3---------------5-------------------------------0------------------3----------------5-------3--|
E|-------------------3--------------------------------------------------1----------------3----------|
        I hear your hopes           I feel your dreams      And in the dark I hear your screams

e|---------------------------------------------------------------------------------------------------|
B|---------------------------------------------------------------------------------------------------|
G|-------------------------------------2-----------------------------------------------5-------------|
D|------------------5------------------2---------------------3-----------5-------------5-------------|
A|------------------5------------------0---------------------3-----------5-------------3-------------|
E|------------------3----------------------------------------1-----------3---------------------------|
       Don't turn away    Just take my hand      And when you make your final stand


e|---------------------------------------------------------------------------------------------------|
B|---------------------------------------------------------------------------------------------------|
G|-------------------5-------------------------------------2-----------------------------------------|
D|-------------------5----------------------5--------------2-------3-------5-------------------------|
A|-------------------3----------------------5--------------0-------3-------5-------------------------|
E|------------------------------------------3----------------------1-------3-------------------------|
      I'll be right there    I'll never leave   And all I ask    of you  Is to

e|---------------------------------------------------------------------------------------------------|
B|----------------------------------------8-10------------------3------------------------------------|
G|-5~-----------------------------------9------9--------------4---5-4--------------------------------|
D|-5~----------------------------10---------------------5--------------------------------------------|
A|-3~-------------------------10----10----------------5---5------------------------------------------|
E|--------------------------8-----------------------3------------------------------------------------|
                Believe!!!!!!!!                   Yeah!!!!!!!!


e|---------------------------------------------------------------------------------------------------|
B|-------------------------------------5-7-----------------------------------------------------------|
G|-----------------------------------5-----5-------10----------12------------------------------------|
D|-------------------------------7--------------10----10----12----12---------------------------------|
A|-----------------------------7---7----------8----------10------------------------------------------|
E|---------------------------5-----------------------------------------------------------------------|



e|---------------------------------------------------------------------------------------------------|
B|-----------------------8-10---------------------------3--------------------------------------------|
G|---------------------9------9-----------------------4---5-4----------------------------------------|
D|-------------10--------------------------------5---------------------------------------------------|
A|----------10----10---------------------------5---5-------------------------------------------------|
E|--------8----------------------------------3-------------------------------------------------------|
        I never wanted to know              Never wanted to see

e|---------------------------------------------------------------------------------------------------|
B|------------------5-7------------------------------------------------------------------------------|
G|----------------5-----5-------------------------10----------12-------------------------------------|
D|-----------7---------------------------------10----10----12----12----------------------------------|
A|---------7---7-----------------------------8----------10-------------------------------------------|
E|-------5-------------------------------------------------------------------------------------------|
       I wasted my time                     Till time wasted me!

e|---------------------------------------------------------------------------------------------------|
B|-----------------------8-10---------------------------3--------------------------------------------|
G|---------------------9------9-----------------------4---5-4----------------------------------------|
D|-------------10--------------------------------5---------------------------------------------------|
A|----------10----10---------------------------5---5-------------------------------------------------|
E|--------8----------------------------------3-------------------------------------------------------|
         Never Wanted to Go                 Always Wanted To Stay

e|---------------------------------------------------------------------------------------------------|
B|------------------5-7------------------------------------------------------------------------------|
G|----------------5-----5-------------------------10----------12-------------------------------------|
D|-----------7---------------------------------10----10----12----12----------------------------------|
A|---------7---7-----------------------------8----------10-------------------------------------------|
E|-------5-------------------------------------------------------------------------------------------|
       Cause the Persons I am               Are the Parts that I play
e|---------------------------------------------------------------------------------------------------|
B|-----------------------8-10---------------------------3--------------------------------------------|
G|---------------------9------9-----------------------4---5-4----------------------------------------|
D|-------------10--------------------------------5---------------------------------------------------|
A|----------10----10---------------------------5---5-------------------------------------------------|
E|--------8----------------------------------3-------------------------------------------------------|
         So I Plot and I Plan              I hope and I Scheme
e|---------------------------------------------------------------------------------------------------|
B|------------------5-7------------------------------------------------------------------------------|
G|----------------5-----5-------------------------10----------12-------------------------------------|
D|-----------7---------------------------------10----10----12----12----------------------------------|
A|---------7---7-----------------------------8----------10-------------------------------------------|
E|-------5-------------------------------------------------------------------------------------------|
     To the Lure of the night               Filled with Unfinished dreams
e|---------------------------------------------------------------------------------------------------|
B|-----------------------8-10---------------------------3--------------------------------------------|
G|---------------------9------9-----------------------4---5-4----------------------------------------|
D|-------------10--------------------------------5---------------------------------------------------|
A|----------10----10---------------------------5---5-------------------------------------------------|
E|--------8----------------------------------3-------------------------------------------------------| 
        And Im Holding on Tight           To a World gone Astray
e|---------------------------------------------------------------------------------------------------|
B|------------------5-7------------------------------------------------------------------------------|
G|----------------5-----5-------------------------10----------12-------------------------------------|
D|-----------7---------------------------------10----10----12----12----------------------------------|
A|---------7---7-----------------------------8----------10-------------------------------------------|
E|-------5-------------------------------------------------------------------------------------------|
     And As they charge me for years            I Cant Pay!!

e|---------------------------------------------------------------------------------------------------|
B|-----------------------8-10---------------------------3--------------------------------------------|
G|---------------------9------9-----------------------4---5-4----------------------------------------|
D|-------------10--------------------------------5---------------------------------------------------|
A|----------10----10---------------------------5---5-------------------------------------------------|
E|--------8----------------------------------3-------------------------------------------------------| 

e|---------------------------------------------------------------------------------------------------|
B|------------------5-7------------------------------------------------------------------------------|
G|----------------5-----5-------------------------10----------12-------------------------------------|
D|-----------7---------------------------------10----10----12----12----------------------------------|
A|---------7---7-----------------------------8----------10-------------------------------------------|
E|-------5-------------------------------------------------------------------------------------------|


Now here is the Solo, Get Ready!

(Solo)


e|----12----------12-13-15-13h15p13-12-13-15-13h15p13-12-13-13-12-12-----12-13-15-13-15-13-12------|
B|-------------------------------------------------------------------------------------------------|
G|-------------------------------------------------------------------------------------------------|
D|-------------------------------------------------------------------------------------------------|
A|-------------------------------------------------------------------------------------------------|
E|-------------------------------------------------------------------------------------------------|

e|-13-15-13-15-13-12-13----------------------------------------------------------------------------|
B|-------------------------------------------------------------------------------------------------|
G|-------------------------------------------------------------------------------------------------|
D|-------------------------------------------------------------------------------------------------|
A|-------------------------------------------------------------------------------------------------|
E|-------------------------------------------------------------------------------------------------|

e|----12----------12-13-15-13h15p13-12-13-15-13h15p13-12-13-13-12-12-----12-13-15-13-15-13-12------|
B|-------------------------------------------------------------------------------------------------|
G|-------------------------------------------------------------------------------------------------|
D|-------------------------------------------------------------------------------------------------|
A|-------------------------------------------------------------------------------------------------|
E|-------------------------------------------------------------------------------------------------|

e|-13-15-13-15-13-12-13----------------------------------------------------------------------------|
B|-------------------------------------------------------------------------------------------------|
G|-------------------------------------------------------------------------------------------------|
D|-------------------------------------------------------------------------------------------------|
A|-------------------------------------------------------------------------------------------------|
E|-------------------------------------------------------------------------------------------------|

e|--12b13-12------12b13-12----------13b15-13-----------12-10-12-13-12-10---------------------------|
B|-----------13~-----------13~---------------13~-------------------------13------------------------|
G|-------------------------------------------------------------------------------------------------|
D|-------------------------------------------------------------------------------------------------|
A|-------------------------------------------------------------------------------------------------|
E|-------------------------------------------------------------------------------------------------|

e|--12b13-12------12b13-13-----13b15-13------------------------------------------------------------|
B|-----------13~-----------13~----------13~-----------7-8-10---------7-8-10------------------------|
G|---------------------------------------------7-9-7----------7-9-7--------------------------------|
D|-------------------------------------------------------------------------------------------------|
A|-------------------------------------------------------------------------------------------------|
E|-------------------------------------------------------------------------------------------------|


(Note) Lead plays the notes on the high E string While Rhythm plays the other assortment

e|----12~~~--12-13-12--------------12-15b17-15~----------------------------------------------------|
B|-------------------------------------------------------------------------------------------------|
G|-------------------------------------------------------------------------------------------------|
D|-------------------------------------------------------------------------------------------------|
A|-------------------------------------------------------------------------------------------------|
E|-------------------------------------------------------------------------------------------------|


e|----12~~~--12-13-12--------------12-15b17-15~----------------------------------------------------|
B|-------------------------------------------------------------------------------------------------|
G|-------------------------------------------------------------------------------------------------|
D|-------------------------------------------------------------------------------------------------|
A|-------------------------------------------------------------------------------------------------|
E|-------------------------------------------------------------------------------------------------|

e|-------------------------------------------------------------------------------------------------|
B|-----------------------8-10---------------------------3------------------------------------------|
G|---------------------9------9-----------------------4---5-4--------------------------------------|
D|-------------10--------------------------------5-------------------------------------------------|
A|----------10----10---------------------------5---5-----------------------------------------------|
E|--------8----------------------------------3-----------------------------------------------------| 
                            I am the way      I am the Light

e|----12~~~--12-13-12--------------12-15b17-15~----------------------------------------------------|
B|-------------------------------------------------------------------------------------------------|
G|-------------------------------------------------------------------------------------------------|
D|-------------------------------------------------------------------------------------------------|
A|-------------------------------------------------------------------------------------------------|
E|-------------------------------------------------------------------------------------------------|

e|-------------------------------------------------------------------------------------------------|
B|-------------------------------------5-7---------------------------------------------------------|
G|-----------------------------------5-----5-------10----------12----------------------------------|
D|-------------------------------7--------------10----10----12----12-------------------------------|
A|-----------------------------7---7----------8----------10----------------------------------------|
E|---------------------------5---------------------------------------------------------------------|
         I am the Dark                        Inside the Night

e|----12~~~--12-13-12--------------12-15b17-15~----------------------------------------------------|
B|-------------------------------------------------------------------------------------------------|
G|-------------------------------------------------------------------------------------------------|
D|-------------------------------------------------------------------------------------------------|
A|-------------------------------------------------------------------------------------------------|
E|-------------------------------------------------------------------------------------------------|

e|-------------------------------------------------------------------------------------------------|
B|-----------------------8-10---------------------------3------------------------------------------|
G|---------------------9------9-----------------------4---5-4--------------------------------------|
D|-------------10--------------------------------5-------------------------------------------------|
A|----------10----10---------------------------5---5-----------------------------------------------|
E|--------8----------------------------------3-----------------------------------------------------| 
         I Hear Your Hopes                   I Feel your Dreams



e|----12~~~--12-13-12--------------12-15b17-15~----------------------------------------------------|
B|-------------------------------------------------------------------------------------------------|
G|-------------------------------------------------------------------------------------------------|
D|-------------------------------------------------------------------------------------------------|
A|-------------------------------------------------------------------------------------------------|
E|-------------------------------------------------------------------------------------------------|

e|-------------------------------------------------------------------------------------------------|
B|-------------------------------------5-7---------------------------------------------------------|
G|-----------------------------------5-----5-------10----------12----------------------------------|
D|-------------------------------7--------------10----10----12----12-------------------------------|
A|-----------------------------7---7----------8----------10----------------------------------------|
E|---------------------------5---------------------------------------------------------------------|
                           And in the Dark!   I Hear your Screams!

e|----12~~~--12-13-12--------------12-15b17-15~----------------------------------------------------|
B|-------------------------------------------------------------------------------------------------|
G|-------------------------------------------------------------------------------------------------|
D|-------------------------------------------------------------------------------------------------|
A|-------------------------------------------------------------------------------------------------|
E|-------------------------------------------------------------------------------------------------|

e|-------------------------------------------------------------------------------------------------|
B|-----------------------8-10---------------------------3------------------------------------------|
G|---------------------9------9-----------------------4---5-4--------------------------------------|
D|-------------10--------------------------------5-------------------------------------------------|
A|----------10----10---------------------------5---5-----------------------------------------------|
E|--------8----------------------------------3-----------------------------------------------------| 
          Dont turn away                     Just take my Hand


e|----12~~~--12-13-12--------------12-15b17-15~----------------------------------------------------|
B|-------------------------------------------------------------------------------------------------|
G|-------------------------------------------------------------------------------------------------|
D|-------------------------------------------------------------------------------------------------|
A|-------------------------------------------------------------------------------------------------|
E|-------------------------------------------------------------------------------------------------|

e|-------------------------------------------------------------------------------------------------|
B|-------------------------------------5-7---------------------------------------------------------|
G|-----------------------------------5-----5-------10----------12----------------------------------|
D|-------------------------------7--------------10----10----12----12-------------------------------|
A|-----------------------------7---7----------8----------10----------------------------------------|
E|---------------------------5---------------------------------------------------------------------|
                           And when you Make     Your Final Stand!

e|----12~~~--12-13-12--------------12-15b17-15~----------------------------------------------------|
B|-------------------------------------------------------------------------------------------------|
G|-------------------------------------------------------------------------------------------------|
D|-------------------------------------------------------------------------------------------------|
A|-------------------------------------------------------------------------------------------------|
E|-------------------------------------------------------------------------------------------------|

e|-------------------------------------------------------------------------------------------------|
B|-----------------------8-10---------------------------3------------------------------------------|
G|---------------------9------9-----------------------4---5-4--------------------------------------|
D|-------------10--------------------------------5-------------------------------------------------|
A|----------10----10---------------------------5---5-----------------------------------------------|
E|--------8----------------------------------3-----------------------------------------------------| 
         Ill Be right There                 Ill never leave


e|----12~~~--12-13-12--------------12-15b17-15~----------------------------------------------------|
B|-------------------------------------------------------------------------------------------------|
G|-------------------------------------------------------------------------------------------------|
D|-------------------------------------------------------------------------------------------------|
A|-------------------------------------------------------------------------------------------------|
E|-------------------------------------------------------------------------------------------------|

e|-------------------------------------------------------------------------------------------------|
B|-------------------------------------5-7---------------------------------------------------------|
G|-----------------------------------5-----5-------10----------12----------------------------------|
D|-------------------------------7--------------10----10----12----12-------------------------------|
A|-----------------------------7---7----------8----------10----------------------------------------|
E|---------------------------5---------------------------------------------------------------------|
                     And all I ask of you         Is to Believe

e|-------------------------------------------------------------------------------------------------|
B|-------------------------------------------------------------------------------------------------|
G|-------------------------------------------------------------------------------------------------|
D|-------------------------------------------------------------------------------------------------|
A|-------------------------------------------------------------------------------------------------|
E|-------------------------------------------------------------------------------------------------|
                                              Believe







************************************

| h   Hammer-on
| p   Pull-off
| b   Bend

************************************
Suggest correction
Give kudos to tab author, rate the tab!
1 2 3 4 5
comments
print report bad tab
guest
You may want to rate the tab now too:
select rating
Wanna post a correction for this tab? Suggest correction