Oops, an error
Loading. Please wait.

Hall Of The Mountain King tab

version 2
version 2

Whole song

Interactive

5,607 views 6 this week
2 commentsread comments
1 2 3 4 5
x 4
add to favorites
×
Save as Personal and add changes to this tab that will be seen only by you. Learn more ›
×
You can save this tab as Personal to edit and correct it or add notes. All changes will be seen only by you. Learn more »
launch autoscroll
font size
0
reset
how to read this tab
guitar tuner
edit
Autoscroll
slow
fast
+/-
esc
set tempo
stop
Author
Difficulty
Tabbers playing skills
advanced ++
E-]----------------------------------------------------------------------------|
B-]----------------------------------------------------------------------------|
G-]o--------------------------------------------------------------------------o|
D-]o----------------------------------------------3---------2--------1--------o|
A-]---0--0---3--0--0---3--0--0---2--3~~~ --0--0------0--0------0--0-----1~~ ---|
E-]----------------------------------------------------------------------------|

              Far........
              Within it.......
E-]----------------------------------------------------------------------------|
B-]----------------------------s-----------------------------------------------|
G-]o----------5---------4----5-\-7---------------5--------5---------3----------|
D-]o----------5---------4------------------------5--------5---------3----------|
A-]-----------3---------2----3-\-5---------------3--------3---------1----------|
E-]----0---0--------0--------------------0---0-------0-------------------------|

              Books of might lay.........
              A castle of stone..........
E-]----------------------------------------------------------------------------|
B-]----------------------------s-----------------------s-----------------------|
G-]-----------5---------4----5-\-7---------------5---7-\10---10-10-10----8----o|
D-]-----------5---------4------------------------5----------------------------o|
A-]-----------3---------2----3-\-5---------------3---5-\-8----8--8--8----6-----|
E-]----0---0--------0--------------------0---0---------------------------------|

        All alone   in here.....
        Lost inside forever hidden from the sun...
E-]----------------------------------------------------------------------------|
B-]----------------------------------------------------------------------------|
G-]o----10----10----10-------------8-------------------------------------------|
D-]o-------------------h---p--------------9---7-----------------h---p----------|
A-]------8-----8-----8^^^9^^^8-----6-------------10---9---7---7^^^9^^^7--------|
E-]----------------------------------------------------------------------------|


E-]----------------------------------------------------------------------------|
B-]-------------------------------------------------s-----------s--------------|
G-]-----------3-----5---------------------3-------5-\-3-------3-\-5-----------o|
D-]-----------3-----5---------------------3-------5-\-3-------3-\-5-----------o|
A-]-----------1-----3---------------------1-------3-\-1-------1-\-3------------|
E-]---0---0------0------0---0-----0---0----------------------------------------|

         Mad         ness      Reigns                   In the hall of the...

E-]----------------------------------------------------------------------------|
B-]--------------------------------------------------------s-------------------|
G-]------5-----------------------------------------------X-\~~ ----------------|
D-]------5-----------5---------6-------------------------X-\~~ ----------------|
A-]------3-----------5---------6-------------------------X-\~~ ----------------|
E-]------------------3---------4-----------------------------------------------|


E-]----------------------------------------------------------------------------|
B-]----------------------------------------------------------------------------|
G-]o--------------------------------------------------------------------------o|
D-]o----------------------------------------------3---------2--------1--------o|
A-]---0--0---3--0--0---3--0--0---2--3~~~ --0--0------0--0------0--0-----1~~ ---|
E-]----------------------------------------------------------------------------|

              His deep dark eyes.....
              His hall......
E-]----------------------------------------------------------------------------|
B-]----------------------------s-----------------------------------------------|
G-]o----------5---------4----5-\-7---------------5--------5---------3----------|
D-]o----------5---------4------------------------5--------5---------3----------|
A-]-----------3---------2----3-\-5---------------3--------3---------1----------|
E-]----0---0--------0--------------------0---0-------0-------------------------|

              Keep whach on his kingdom.....
              His chalice of ....
E-]----------------------------------------------------------------------------|
B-]----------------------------s-----------------------s-----------------------|
G-]-----------5---------4----5-\-7---------------5---7-\10---10-10-10----8----o|
D-]-----------5---------4------------------------5----------------------------o|
A-]-----------3---------2----3-\-5---------------3---5-\-8----8--8--8----6-----|
E-]----0---0--------0--------------------0---0---------------------------------|

         for eternity....                      its gaurded by the king...
         In sanity.....                        with the power that it brings..
E-]----------------------------------------------------------------------------|
B-]----------------------------------------------------------------------------|
G-]o----10----10----10-------------8-------------------------------------------|
D-]o-------------------h---p--------------9---7-----------------h---p----------|
A-]------8-----8-----8^^^9^^^8-----6-------------10---9---7---7^^^9^^^7--------|
E-]----------------------------------------------------------------------------|


E-]----------------------------------------------------------------------------|
B-]-------------------------------------------------s-----------s--------------|
G-]-----------3-----5---------------------3-------5-\-3-------3-\-5-----------o|
D-]-----------3-----5---------------------3-------5-\-3-------3-\-5-----------o|
A-]-----------1-----3---------------------1-------3-\-1-------1-\-3------------|
E-]---0---0------0------0---0-----0---0----------------------------------------|

         Mad        Ness      reigns                   in the hall of the....
E-]----------------------------------------------------------------------------|
B-]--------------------------------------------------------s-------------------|
G-]------5-----------------------------------------------X-\~~ ----------------|
D-]------5-----------5---------6-------------------------X-\~~ ----------------|
A-]------3-----------5---------6-------------------------X-\~~ ----------------|
E-]------------------3---------4-----------------------------------------------|

           Ah yhea
                                      in the hall of the.....        four times
E-]----------------------------------------------------------------------------|
B-]----------------------------------------------------------------------------|
G-]o--------------------------------------------------------------------------o|
D-]o----------------------------------------------3---------2--------1--------o|
A-]---0--0---3--0--0---3--0--0---2--3~~~ --0--0------0--0------0--0-----1~~ ---|
E-]----------------------------------------------------------------------------|


E-]----------------------------------------------------------------------------|
B-]--------------------------------------------s-------s---------s-------------|
G-]o----5--5--5--5---------3----3--------7---7-\-9---9-\-10---10-\-9-----------|
D-]o----5--5--5--5----6----3----3----------------------------------------------|
A-]-----3--3--3--3----6----1----1--------5---5-\-7---7-\--8----8-\-7-----------|
E-]-------------------4--------------------------------------------------------|


E-]----------------------------------------------------------------------------|
B-]----------------------------------------------------------------------------|
G-]-----5--5--5--5---------3----3--------10----10-\-9----9-\-7----7-\-9-------o|
D-]-----5--5--5--5----6----3----3---------------------------------------------o|
A-]-----3--3--3--3----6----1----1---------8-----8-\-7----7-\-5----5-\-7--------|
E-]-------------------4--------------------------------------------------------|

                 ha haha~~~~
                 whoa
                 No No
                 ah  (32 X's)                                          28 times
E-]----------------------------------------------------------------------------|
B-]----------------------------------------------------------------------------|
G-]o----------------------p---------------------------------------------------o|
D-]o--------------------6^^^5----------------p------------p-------------------o|
A-]--------------0-----------------0-------8^^^5--------6^^^3------------------|
E-]----------------------------------------------------------------------------|
  |                                                                            |
E-]----------------------------------------------------------------------------|
B-]----------------------------------------------------------------------------|
G-]o--------------------------------------------------------------------------o|
D-]o----------------5----5----5-----------------------------------------------o|
A-]----------------------------------------------------------------------------|
E-]----------------------------------------------------------------------------|

                 Ah~~~~                     HA HA HA.......  

E-]----------------------------------------------------------------------------|
B-]----------------------------------------------------------------------------|
G-]---------------5------------------------------------------------------------|
D-]---------------5------------------------------------------------------------|
A-]---------------3------------------------------------------------------------|
E-]----------------------------------------------------------------------------|

     solo--->                                                       four times
E-]----------------------------------------------------------------------------|
B-]----------------------------------------------------------------------------|
G-]o--------5------------5----------------------------------------------------o|
D-]o--------5-----6------5-----6-------6----------8---------------------------o|
A-]---------3-----6------3-----6-------6----------8----------------------------|
E-]---------------4------------4-------4----------6----------------------------|

                                                    insane to the world....
E-]----------------------------------------------------------------------------|
B-]-------------------------------3--------------------------------------------|
G-]--------------------------4---------4-------------------------------5-------|
D-]-------------------5---------------------5---------------------6--------6---|
A-]-------------5-------------------------------------------6------------------|
E-]-------3-----------------------------------------4--------------------------|


E-]----------------------------------------------------------------------------|
B-]----------------------------------------------------------------------------|
G-]---------5------------5-----------------------------------------------------|
D-]---------5-----6------5-----6-------6----------8----------------------------|
A-]---------3-----6------3-----6-------6----------8----------------------------|
E-]---------------4------------4-------4----------6----------------------------|

                                                                     <----solo
E-]----------------------------------------------------------------------------|
B-]-------------------------------3--------------------------------------------|
G-]--------------------------4---------4-------------------------------5-------|
D-]-------------------5---------------------5---------------------6--------6---|
A-]-------------5-------------------------------------------6------------------|
E-]-------3-----------------------------------------4--------------------------|

        Ah~~~~~~~
E-]----------------------------------------------------------------------------|
B-]----------------------------------------------------------------------------|
G-]o--------------------------------------------------------------------------o|
D-]o----------------------------------------------3---------2--------1--------o|
A-]---0--0---3--0--0---3--0--0---2--3~~~ --0--0------0--0------0--0-----1~~ ---|
E-]----------------------------------------------------------------------------|

              Join with me.....
              To fear....
E-]----------------------------------------------------------------------------|
B-]----------------------------s-----------------------------------------------|
G-]o----------5---------4----5-\-7---------------5--------5---------3----------|
D-]o----------5---------4------------------------5--------5---------3----------|
A-]-----------3---------2----3-\-5---------------3--------3---------1----------|
E-]----0---0--------0--------------------0---0-------0-------------------------|

              Stay close by my side....
              The thunder it roars....
E-]----------------------------------------------------------------------------|
B-]----------------------------s-----------------------s-----------------------|
G-]-----------5---------4----5-\-7---------------5---7-\10---10-10-10----8----o|
D-]-----------5---------4------------------------5----------------------------o|
A-]-----------3---------2----3-\-5---------------3---5-\-8----8--8--8----6-----|
E-]----0---0--------0--------------------0---0---------------------------------|

         All his children home                   where hidden rivers run
         Refugees                                forever on the run
E-]----------------------------------------------------------------------------|
B-]----------------------------------------------------------------------------|
G-]o----10----10----10-------------8-------------------------------------------|
D-]o-------------------h---p--------------9---7-----------------h---p----------|
A-]------8-----8-----8^^^9^^^8-----6-------------10---9---7---7^^^9^^^7--------|
E-]----------------------------------------------------------------------------|


E-]----------------------------------------------------------------------------|
B-]-------------------------------------------------s-----------s--------------|
G-]-----------3-----5---------------------3-------5-\-3-------3-\-5-----------o|
D-]-----------3-----5---------------------3-------5-\-3-------3-\-5-----------o|
A-]-----------1-----3---------------------1-------3-\-1-------1-\-3------------|
E-]---0---0------0------0---0-----0---0----------------------------------------|

         Mad        ness      reigns                   in the hall of the m.k.
E-]----------------------------------------------------------------------------|
B-]--------------------------------------------------------s-------------------|
G-]------5-----------------------------------------------X-\~~ ----------------|
D-]------5-----------5---------6-------------------------X-\~~ ----------------|
A-]------3-----------5---------6-------------------------X-\~~ ----------------|
E-]------------------3---------4-----------------------------------------------|

       Ah yhea                     In the hall of the mountain king...
                                                                     four times
E-]----------------------------------------------------------------------------|
B-]----------------------------------------------------------------------------|
G-]o--------------------------------------------------------------------------o|
D-]o----------------------------------------------3---------2--------1--------o|
A-]---0--0---3--0--0---3--0--0---2--3~~~ --0--0------0--0------0--0-----1~~ ---|
E-]----------------------------------------------------------------------------|

E-]----------------------------------------------------------------------------|
B-]----------------------------------------------------------------------------|
G-]----------------------------------------------------------------------------|
D-]------------------------3-----------------2--------------1------------------|
A-]------------0-----0----------0-----0----------0-----0-----------1~~~~ ------|
E-]----------------------------------------------------------------------------|


E-]----------------------------------------------------------------------------|
B-]----------------------------------------------------------------------------|
G-]----------------------------------------------------------------3-----------|
D-]------------------------3-----------------2--------------1~~~ --3-----------|
A-]------------0-----0----------0-----0----------0-----0-----------1~~~~ ------|
E-]----------------------------------------------------------------------------|

E-]----------------------------------------------------------------------------|
B-]----------------------------------------------------------------------------|
G-]------5----------------5--------------5-------------------5-----------------|
D-]------5-------5--------5------5-------5--------5----------5--------5--------|
A-]------3-------5--------3------5-------3--------5----------3--------5--------|
E-]--------------3---------------3----------------3-------------------3--------|

                  Ah~~~~~~~~~~~~~~~~~~~~~~~~~~~~~~~~~~~
E-]----------------------------------------------------------------------------|
B-]----------------------------------------------------------------------------|
G-]---------------5------------------------------------------------------------|
D-]---------------5------------------------------------------------------------|
A-]---------------3------------------------------------------------------------|
E-]----------------------------------------------------------------------------|




            
            
Suggest correction
Creating personal tab
Creating personal tab
You can edit any tab online and save it as your Personal.

You can edit, replace or remove any tab part or add personal notes – all changes will be seen only by you.

Personal tabs can be accessed anytime from any device, even offline.
Learn more »
comments
print report bad tab
2 comments total.
0 reply
ghavelus 134 Mar 28, 2009 07:16 PM

this is a bad tab

0 reply
mike1313 10 Jun 03, 2016 05:16 AM

this tab isn't just wrongly made it's awfull, the tabs are wrong and the whole song sounds like shit if you play it like this

guest
You may want to rate the tab now too:
select rating
Wanna post a correction for this tab? Suggest correction