Oops, an error
Loading. Please wait.

Come On Eileen Bass Tab

version 1
version 1

Whole song

Interactive

13,727 views 30 this week
no commentswrite comment
1 2 3 4 5
excellent!
x 6
add to favorites
launch autoscroll
font size
0
reset
guitar tuner
Autoscroll
slow
fast
+/-
esc
set tempo
stop
Help us to improve Ultimate-Guitar.com Take our survey!
×
Author
Song : Come On Eileen (Bass TAB)
Artist : Save Ferris
Album : It Means Everything

Tabbed by KamSolusar ( mightymaidenmanic@hotmail.com )

Email me with any corrections - but it's closer than the last tab
of this song I saw!


Intro

G|| -----------|-----------------|--------------------------------|
D|| -2------2--|--------44444444-|----------------1-1-1--1-11-1-1-|
A|| -----------|22222222---------|2-2-2--2-22-2-2-----------------|
E|| ---12\0----|-----------------|--------------------------------|

G|| ----------------------------|
D|| 2-2-2--2-22-2-2-------------|
A|| ----------------2-22--------|
E|| -----------------------2-22-|

Verse 1

G|| -----------------|----3-------3-4-|----------------|---------------- ||
D||*---1-4-1---1-2-4-|1-4---4-1-4-----|----------------|--1-4-1---------*|| x4
A||*-2-------2-------|----------------|----2-------0-1-|2---------1-4-1-*||
E|| -----------------|----------------|0-4---4-0-4-----|--------2------- ||

G|| -----------------|----------------|----------------|----------------|
D|| ---1-4-1---1-2-4-|----------------|----------------|----------------|
A|| -2-------2-------|6-6-6-6-6-6-6-6-|7-7-7-7-7-7-7-7-|2-2-2-2---------|
E|| -----------------|----------------|----------------|--------2-2-2-2-|

G|| ---------------- |
D|| ---------------- |
A|| ---------------- |
E|| 2-2-2-2-2-2-2-2- |


Chorus

G|| -----------------|----------------|----------------|----------------|
D|| -----------------|6-6---4-6---4-6-|----------------|----------------|
A|| -4-4---2-4---2-4-|----6-----6-----|6-6---4-6---4-6-|----4---4---6---|
E|| -----4-----4-----|----------------|----6-----6-----|2-2---2---4---4-|

G|| -----------------|----------------|----------------|----------------|
D|| -----------------|6-6---4-6---4-6-|----------------|----------------|
A|| -4-4---2-4---2-4-|----6-----6-----|6-6---4-6---4-6-|----4-----------|
E|| -----4-----4-----|----------------|----6-----6-----|2-2---2--4------|


Bridge

G|| ---------------------------------|-----------------------------|
D|| -----------------1-1-1--1-11-1-1-|2-2-2--2-22-2-2--------------|
A|| -2-2-2--2-22-2-2-----------------|-----------------2-22--------|
E|| ---------------------------------|------------------------2-22-|


Verse 2

G|| -----------------|----3-------3-4-|----------------|---------------- ||
D||*---1-4-1---1-2-4-|1-4---4-1-4-----|----------------|--1-4-1---------*|| x3
A||*-2-------2-------|----------------|----2-------0-1-|2---------1-4-1-*||
E|| -----------------|----------------|0-4---4-0-4-----|--------2------- ||

G|| -----------------|----------------|----------------|----------------|
D|| ---1-4-1---1-2-4-|----------------|----------------|----------------|
A|| -2-------2-------|6-6-6-6-6-6-6-6-|7-7-7-7-7-7-7-7-|2-2-2-2---------|
E|| -----------------|----------------|----------------|--------2-2-2-2-|

G|| --------------------- |
D|| --------------------- |
A|| --------------------- |
E|| 2-2-2-2-/14-14-14-14- |

Chorus

G|| -----------------|----------------|----------------|---------------- ||
D||*-----------------|6-6---4-6---4-6-|----------------|----------------*|| x2
A||*-4-4---2-4---2-4-|----6-----6-----|6-6---4-6---4-6-|----4---4---6---*||
E|| -----4-----4-----|----------------|----6-----6-----|2-2---2---4---4- ||

G|| -----------------|----------------|----------------|-----------------|---|
D|| -----------------|6-6---4-6---4-6-|----------------|-----------------|---|
A|| -4-4---2-4---2-4-|----6-----6-----|6-6---4-6---4-6-|----4--------6---|4--|
E|| -----4-----4-----|----------------|----6-----6-----|2-2---2--4-4---4-|---|


Middle 8

G|| -----------------|----------------|----------------|---------------- ||
D||o---3-6-3---3-4-6-|----------------|----------------|----------------o|| x3
A||o-4-------4-------|----3---------3-|--1-2-3-4-3-1---|4---------1-2-3-o||
E|| -----------------|1-4---4-1-3-4---|2-------------4-|--1-2-3-4------- ||


Outro

G|| -----|-----|-----|----------|
D|| -----|-----|-----|----------|
A|| -4---|-----|6----|----------|
E|| -----|4----|-----|2222-4444-|

G||  --------|--------|--------|---------  ||
D||* --------|--------|--------|--------- *|| x2
A||* -4-4-4-4|--------|-6-6-6-6|--------- *||
E||  --------|-4-4-4-4|--------|-22224444  ||

G|| ---------|----------|------|------|------|
D|| ---------|----------|------|------|------|
A|| -44444444|----------|6-----|------|------| *fin*
E|| ---------|-44444444-|------|2-----|4-----|



N.B. note that there are lead-in notes in Middle 8 (not shown)
Suggest correction
What's this?
You can suggest a correction to this tab. Community and Mods will review your correction and vote to approve or reject it.
comments
print report bad tab
guest
You may want to rate the tab now too:
select rating
Please do not post tabs as comments. Select "correction" instead!