Oops, an error
Loading. Please wait.

All Im Losing Is Me Bass Tab

version 2
version 2

Whole song

410 views 1 this week
no commentswrite comment
1 2 3 4 5
please rate
add to favorites
launch autoscroll
font size
0
reset
guitar tuner
Autoscroll
slow
fast
+/-
esc
set tempo
stop
Help us to improve Ultimate-Guitar.com Take our survey!
×
Difficulty
novice
All I'm Losing is Me
by Saves the Day
tabbed by Adam
http://ebenrocks.8m.com

Verse 2
G|-------------------------------------------------------|
D|--------------------------------------------------76---|
A|------------55555-5555-54--------------55555-0345---7--| 
E|02022-02022----------------02022-02022-----------------|
 
G|-------------------------|   G|-----------------------------|
D|-------------------------|   D|--------------------7---6----|
A|------------55555-5555-54|x2 A|------------55555-5---5---7--|
E|02022-02022--------------|   E|02022-02022------------------|

G|-------------------------|    
D|-------------------------|    
A|------------55555-0345---| 
E|02022-02022--------------|  

Pre-Chorus
G|-------------------------------------|
D|---------7-6-------------------------|
A|-7>-9-5>-----7-5-7>-555-4h5-55-4-77--|
E|-------------------------------------|

Chorus
G|------------------------------|   G|----------|
D|-------------7----------------|   D|----------|
A|------4-7777--------4--4------|x2 A|-5-7h9-7--|
E|-5555----------5555---2-22-00-|   E|----------|

G|-------------------------|    G|--------------|
D|-------------------------|    D|--------------|
A|------------55555-5555-54| x4 A|-5555-----4-7-|
E|02022-02022--------------|    E|------5-7-----|

Prechorus
Chorus

Bridge 
G|-------------------------------------|
D|-0>-7-0-67----7----6---7---6h7-0>-12>|
A|-----------0>---0>---0---0-----------| x1
E|-------------------------------------|

Repeat verse 1 (when he sings "all i'm losing is me)
Prechorus
Chorus

Ending
Suggest correction
Give kudos to tab author, rate the tab!
1 2 3 4 5
comments
print report bad tab
guest
You may want to rate the tab now too:
select rating
Please do not post tabs as comments. Select "correction" instead!