Oops, an error
Loading. Please wait.

All Star Me Tab

version 2
version 2

Whole song

4,798 views 12 this week
no commentswrite comment
1 2 3 4 5
x 6
add to favorites
launch autoscroll
font size
0
reset
how to read this tab
guitar tuner
Autoscroll
slow
fast
+/-
esc
set tempo
stop
Help us to improve Ultimate-Guitar.com Take our survey!
×
Author
Difficulty
novice
Artist: Saves The Day
Song: All-Star Me
Album: Through Being Cool
by tectactoe

* = palm mute
^ = bend note
/ = slide up
\ = slide down
> = ring out
h = hammer on
p = pull off

Tuning: Standard (EADGBe)

So many people have tabbed this wrong. And it's a very
easy song to play, but lots of subtle parts are missed.
The tab is confusing so I used separators to help you.
There are two guitars in this song. Just to let you know.


=================================================================

(0:02) Intro

Guitar 1
e|----------------------------------------------|--------------------------------------------|
B|----------------------------------------------|--------------------------------------------|
G|----------------------------------------------|--------------------------------------------|
D|--5555555555555555-77777777-1010101010101010--|--5555555555555555-77777777-10101010101010--|
A|--5555555555555555-77777777-1010101010101010--|--5555555555555555-77777777-10101010101010--|
E|--3333333333333333-55555555--8-8-8-8-8-8-8-8--|--3333333333333333-55555555--8-8-8-8-8-8-8--|
 pm                                                                             * *   * *


Guitar 2 (enters at 0:07)
e|--------------------------------------------|
B|--------------------------------------------|
G|--12>>>-------------------------------------|   Guitar 2 comes in slightly
D|-- x>>>-----------7>>-------10101010101010\-|   before guitar one starts part
A|--10>>>-----------7>>-------10101010101010\-|   two of it's lick over again.
E|------------------5>>--------8-8-8-8-8-8-8\-|   Listen for it, it's there!
 pm                              * *   * *

=================================================================

(0:12) Verse

Both Guitars
e|----------------------------------------------|
B|----------------------------------------------|
G|----------------------------------------------|
D|--5555555555555555-77777777-1010101010101010--|
A|--5555555555555555-77777777-1010101010101010--|
E|--3333333333333333-55555555--8-8-8-8-8-8-8-8--|

e|------------------------------------------------|
B|------------------------------------------------|
G|------------------------------------------------|
D|--5555555555555555-77777/9--9/1010101010\9-7/9--|
A|--5555555555555555-xxxxx/x--x/-x-x-x-x-x\x-x/x--|
E|--3333333333333333-55555/7--7/-8-8-8-8-8\7-5/7--|

e|----------------------------------------------|
B|----------------------------------------------|
G|----------------------------------------------|
D|--5555555555555555-77777777-1010101010101010--|
A|--5555555555555555-77777777-1010101010101010--|
E|--3333333333333333-55555555--8-8-8-8-8-8-8-8--|

e|------------------------------------------------|
B|------------------------------------------------|
G|------------------------------------------------|
D|--5555555555555555-77777/9--9/1010101010101010--|
A|--5555555555555555-xxxxx/x--x/-x-x-x-x-x-x-x-x--|
E|--3333333333333333-55555/7--7/-8-8-8-8-8-8-8-8--|

=================================================================

(0:33) Change-Up

Guitar 1
e|-----------------------------|
B|-----------------------------|
G|-----------------------------|
D|--5--5--5--5-5-5-5--5-5-5-5--|
A|--5--5--5--5-5-5-5--5-5-5-5--|
E|--3--3--3--3-3-3-3--3-3-3-3--|
 pm            * *    * * *

Guitar 2
e|--------------------------------------|
B|--------------------------------------|
G|--12-12-12--12-12-12-12--12-12-12-12--|
D|---x--x--x---x--x--x--x---x--x--x--x--|
A|--10-10-10--10-10-10-10--10-10-10-10--|
E|--------------------------------------|
 pm               *  *         *  *

=================================================================

(0:36) Bridge "There we were..."

Guitar 1
e|----------------------------------------------------------------|
B|----------------------------------------------------------------|
G|----------------------------------------------------------------|
D|--/9-9-999-9-9-9-9-9-9-9-7/99--10-1010101010101010101010101010--|
A|--/9-9-999-9-9-9-9-9-9-9-x/xx--10-1010101010101010101010101010--|
E|--/7-7-777-7-7-7-7-7-7-7-5/77---8--8-8-8-8-8-8-8-8-8-8-8-8-8-8--|
 pm    * *** * * * * * * *           * * * * * * * * * * * * * *


Guitar 2
e|------------------------------------------------|
B|------------------------------------------------|
G|--/11-11-111111-11-11-11-11-11-11-11-11\999/12--|
D|--/-x--x--x-x-x--x--x--x--x--x--x--x--x\xxx/-x--|
A|--/-9--9--9-9-9--9--9--9--9--9--9--9--9\777/10--|
E|------------------------------------------------|
 |
e|---------------------------------------------|
B|---------------------------------------------|
G|--12-12-12-12-12-12-12-12-12-12-12-12-12-12--|
D|---x--x--x--x--x--x--x--x--x--x--x--x--x--x--|
A|--10-10-10-10-10-10-10-10-10-10-10-10-10-10--|
E|---------------------------------------------|

=================================================================

(0:41)  "Highland park..."

Both Guitars
e|--------------------|
B|--------------------|
G|--------------------|
D|--5555555555555555--|
A|--5555555555555555--|
E|--3333333333333333--|

=================================================================

(0:44) Repeat Change-up "Ask me now..."

Guitar 1
e|-----------------------------|
B|-----------------------------|
G|-----------------------------|
D|--5--5--5--5-5-5-5--5-5-5-5--|
A|--5--5--5--5-5-5-5--5-5-5-5--|
E|--3--3--3--3-3-3-3--3-3-3-3--|
 pm            * *    * * *

Guitar 2
e|--------------------------------------|
B|--------------------------------------|
G|--12-12-12--12-12-12-12--12-12-12-12--|
D|---x--x--x---x--x--x--x---x--x--x--x--|
A|--10-10-10--10-10-10-10--10-10-10-10--|
E|--------------------------------------|
 pm               *  *         *  *

=================================================================

(0:46) Repeat Bridge "Look out across the sky..."

Guitar 1
e|----------------------------------------------------------------|
B|----------------------------------------------------------------|
G|----------------------------------------------------------------|
D|--/9-9-999-9-9-9-9-9-9-9-7/99--10-1010101010101010101010101010--|
A|--/9-9-999-9-9-9-9-9-9-9-x/xx--10-1010101010101010101010101010--|
E|--/7-7-777-7-7-7-7-7-7-7-5/77---8--8-8-8-8-8-8-8-8-8-8-8-8-8-8--|
 pm    * *** * * * * * * *           * * * * * * * * * * * * * *


Guitar 2
e|------------------------------------------------|
B|------------------------------------------------|
G|--/11-11-111111-11-11-11-11-11-11-11-11\999/12--|
D|--/-x--x--x-x-x--x--x--x--x--x--x--x--x\xxx/-x--|
A|--/-9--9--9-9-9--9--9--9--9--9--9--9--9\777/10--|
E|------------------------------------------------|
 |
e|---------------------------------------------|
B|---------------------------------------------|
G|--12-12-12-12-12-12-12-12-12-12-12-12-12-12--|
D|---x--x--x--x--x--x--x--x--x--x--x--x--x--x--|
A|--10-10-10-10-10-10-10-10-10-10-10-10-10-10--|
E|---------------------------------------------|

=================================================================

(0:51) Change-up #2 "Bloooo-oo-oh-ows..."

Guitar 1
e|---------------------------------------------------|
B|---------------------------------------------------|
G|---------------------------------------------------|
D|--12-12-12-12-12-12-12-12-12-12-12-12-12-12-12-12--|
A|--12-12-12-12-12-12-12-12-12-12-12-12-12-12-12-12--|
E|--10-10-10-10-10-10-10-10-10-10-10-10-10-10-10-10--|

Guitar 2
e|---------------------------------------------------|
B|---------------------------------------------------|
G|--14-14-14-14-14-14-14-14-14-14-14-14-14-14-14-14--|
D|---x--x--x--x--x--x--x--x--x--x--x--x--x--x--x--x--|
A|--12-12-12-12-12-12-12-12-12-12-12-12-12-12-12-12--|
E|---------------------------------------------------|

=================================================================

(0:54) Interlude "Core of coal..."

Guitar 1
e|-------------------------------|-------------------------------|
B|-------------------------------|-------------------------------|
G|-------------------------------|-------------------------------|
D|--5>>----5>>----7>>----10>>----|--5>>----5>>----7>>----10>>----|
A|--5>>----5>>----7>>----10>>----|--5>>----5>>----7>>----10>>----|
E|--3>>----3>>----5>>-----8>>----|--3>>----3>>----5>>-----8>>----|

Guitar 2
e|-------------------------------|-------------------------------------|
B|-------------------------------|-------------------------------------|
G|--12>>-------------------------|-------------------------------------|
D|---x>>---5>>----7>>----10>>----|--5>>---9/10\9/10\9---7>>----10>>----|
A|--10>>---5>>----7>>----10>>----|--5>>---x/-x\x/-x\x---7>>----10>>----|
E|---------3>>----5>>-----8>>----|--3>>---7/-8\7/-8\7---5>>-----8>>----|

=================================================================

(1:15) Outro Part 1 "Even now that you're not here..."

Guitar 1
e|--------------------------------------------------------------------------------------|
B|--------------------------------------------------------------------------------------|
G|--------------------------------------------------------------------------------------|
D|--55555555555555555555555555555555-7777777777777777-10101010101010101010101010101010--|
A|--55555555555555555555555555555555-7777777777777777-10101010101010101010101010101010--|
E|--33333333333333333333333333333333-5555555555555555--8-8-8-8-8-8-8-8-8-8-8-8-8-8-8-8--|

Guitar 2
e|-------------------------------------------------|
B|-------------------------------------------------|  This guitar part is very faint
G|--12-11-12\---12-11-12\---12-11-12\---11-12-11\--|  and hard to hear, but it is there,
D|---x--x--x\----x--x--x-----x--x--x-----x--x--x\--|  trust me!!
A|--10--9-10\---10--9-10\---10--9-10\----9-10--9\--|
E|-------------------------------------------------|

=================================================================

(1:25) Outro Part 2 "Say your name..."

Guitar 1
e|------------------------------------------------------------------------------------------|
B|------------------------------------------------------------------------------------------|
G|------------------------------------------------------------------------------------------|
D|--55555555555555555555555555555555-7777777777777777-10101010101010101010101010101010-5>>--|
A|--55555555555555555555555555555555-7777777777777777-10101010101010101010101010101010-5>>--|
E|--33333333333333333333333333333333-5555555555555555--8-8-8-8-8-8-8-8-8-8-8-8-8-8-8-8-3>>--|

Guitar 2
e|-------------------------------------------------------|
B|-------------------------------------------------------|
G|--12-11-12\---12-11-12\---12-11-12\----12\-11\-9\-7>>--|
D|---x--x--x\----x--x--x-----x--x--x------x\--x\-x\-x>>--|
A|--10--9-10\---10--9-10\---10--9-10\----10\--9\-7\-5>>--|
E|-------------------------------------------------------|

It's 100% right! Enjoy guys!!! STD forever!
Suggest correction
comments
print report bad tab
guest
You may want to rate the tab now too:
select rating
Wanna post a correction for this tab? Suggest correction