Oops, an error
Loading. Please wait.

Always Ten Feet Tall Tab

version 1
version 1

Whole song

Interactive

2,769 views 1 this week
no commentswrite comment
1 2 3 4 5
x 5
add to favorites
launch autoscroll
font size
0
reset
how to read this tab
guitar tuner
Autoscroll
slow
fast
+/-
esc
set tempo
stop
Help us to improve Ultimate-Guitar.com Take our survey!
×
Author
Tuning
D A D G B E
Saves the Day- "Always Ten Feet Tall"
Tab by Aaron Greene


Symbols key
x palm mute
* let ring


Intro riff
e -----------------------2-----------------|
B -5-3-2---2---3-2---------5-3-2-----2---5-|
G -------2---2-----2-------------4-2---4-2-|
D -----------------------------------------|
A -----------------------------------------|
d -----------------------------------------|

Verse
e ----------------------------------|
B ----------------------------------|
G -2-2222222222222-7-77777777777777-|
D -2-2222222222222-7-77777777777777-|
A -0-0000000000000-5-55555555555555-|
d ----------------------------------|  <<<< 2x
     xxxxxxxxxxxxx   xxxxxxxxxxxxxx


e ---------------------5--------|
B -----------------------5------|
G -2*-----------------------2*--|
D -2*-----------------------2*--|
A -0*-----------------------0*--|
d ------------------------------|


e -----------------------------------------|
B -----------------------------------------|
G -2-2-2-2-2-2-2-2-7-7-7-7-7-7-7-7---------|
D -2-2-2-2-2-2-2-2-7-7-7-7-7-7-7-7---------|
A -0-0-0-0-0-0-0-0-5-5-5-5-5-5-5-5---------|
d ---------------------------------  <<----| 4x

Riff
e -----------------------2-----------------|
B -5-3-2---2---3-2---------5-3-2-----2---5-|
G -------2---2-----2-------------4-2---4-2-|
D -----------------------------------------|
A -----------------------------------------|
d -----------------------------------------|

Verse 2
e ----------------------------------|
B ----------------------------------|
G -2-2222222222222-7-77777777777777-|
D -2-2222222222222-7-77777777777777-|
A -0-0000000000000-5-55555555555555-|
d ----------------------------------|  <<<< 2x
     xxxxxxxxxxxxx   xxxxxxxxxxxxxx

e ---------------------5------------------|
B -----------------------5----------------|
G -2*-----------------------2*----------7-|
D -2*-----------------------2*----------7-|
A -0*-----------------------0*----------5-|
d ----------------------------------------|


e -----------------------------------------|
B -----------------------------------------|
G -2-2-2-2-2-2-2-2-7-7-7-7-7-7-7-7---------|
D -2-2-2-2-2-2-2-2-7-7-7-7-7-7-7-7---------|
A -0-0-0-0-0-0-0-0-5-5-5-5-5-5-5-5---------|
d ---------------------------------  <<----| 4x


Bridge
e --------------------------------------------|
B --------------------------------------------|
G -2-2-2-2---9-9-9-9---7-7-7-7-7-7-7-7--------|
D -2-2-2-2---9-9-9-9---7-7-7-7-7-7-7-7--------|
A -0-0-0-0---7-7-7-7---5-5-5-5-5-5-5-5--------|
d --------------------------------------------| <<<4x

Ending
e -------------------------------------------------------|
B -------------------------------------------------------|
G --------------777777777777-----------------------------|
D -4-4444444444-777777777777-777777-666666-222222-000000-|
A -4-4444444444-555555555555-777777-666666-222222-000000-|
d -4-4444444444--------------777777-666666-222222-000000-|  <<<<2x
     xxxxxxxxxx xxxxxxxxxxxx xxxxxx xxxxxx xxxxxx xxxxxx

e ---------------------------------------------------------|
B ---------------------------------------------------------|
G ---------7-7-7-7-7-7-7-7---------------------------------|
D -4-4-4---7-7-7-7-7-7-7-7-7-7-7-7-6-6-6-6-2-2-2-2-0-0-0-0-|
A -4-4-4---5-5-5-5-5-5-5-5-7-7-7-7-6-6-6-6-2-2-2-2-0-0-0-0-|
d -4-4-4-------------------7-7-7-7-6-6-6-6-2-2-2-2-0-0-0-0-| <<<<2x


e --------------------------------------5-------5------------------|
B -----------------------------------------------------------------|
G -----------------7-7-7-7-7-7-7-7---------------------------------|
D -4-4-4-4-4-4-4-4-7-7-7-7-7-7-7-7-7-7-----6-6-----2-2-2-2-0-0-0-0-|
A -4-4-4-4-4-4-4-4-5-5-5-5-5-5-5-5-7-7-----6-6-----2-2-2-2-0-0-0-0-|
d -4-4-4-4-4-4-4-4-----------------7-7-----6-6-----2-2-2-2-0-0-0-0-| <<<<2x

e ----
B ----
G ----
D -4*-
A -4*-
d -4*-
Suggest correction
comments
print report bad tab
guest
You may want to rate the tab now too:
select rating
Wanna post a correction for this tab? Suggest correction