Oops, an error
Loading. Please wait.

Anywhere With You Bass Tab

version 1
version 1

Whole song

Interactive

258 views 3 this week
no commentswrite comment
1 2 3 4 5
please rate
add to favorites
launch autoscroll
font size
0
reset
guitar tuner
Tab Pro tools
  • play this tab
  • loop segment
  • change instrument
  • show fretboard
  • metronome
×
Best way to learn
"Anywhere With You"
Autoscroll
slow
fast
+/-
esc
set tempo
stop
Difficulty
Tuning
intermediate
D# G# C# F# A# D#
Saves The Day
Anywhere with You
tebbed by Adam

Tune a half step down

Intro (has a low D, so tabbed for 5 string)
-------------------------------|       ---------|
-------------------------------|       ---------|
---------------1-2-1-2-3-4444--| then  -7rr--9r-|
-0---0-2-4-2-4-----------------|       ---------|
---3---------------------------|       ---------|

Verse (sometimes he plays the high Ab)
-----------|                     -------------------|     -----------|
-----4-2---|                     ---(6)-4----4-2-1--|     -----------|
-4---------|  variation he uses  -4--------4--------|then ----4r-----|
---4-------|                     ----4--------------|     -4r--------|

Chorus
Verse
Chorus

Verse 3                    (I need to work this part out more)
------------------|       -----------6666--4---|   
---6--4---4-2-1---|       ---------------------|
-4------4---------| then  ----4---4------------|                    
------------------|       --4---4--------------|

Chorus

comments
We did not receive enough feedback on this tab! Please rate:
print report bad tab
1 2 3 4 5
I want to post or [tab]
guest
You may want to rate the tab now too:
select rating
Please do not post tabs as comments. Select "correction" instead!