Oops, an error
Loading. Please wait.

At Your Funeral Tab

version 3
version 3

Whole song

Interactive

10,988 views 3 this week
no commentswrite comment
1 2 3 4 5
accurate
x 16
add to favorites
launch autoscroll
font size
0
reset
how to read this tab
guitar tuner
Tab Pro tools
  • play this tab
  • loop segment
  • change instrument
  • show fretboard
  • metronome
×
Best way to learn
"At Your Funeral"
Autoscroll
slow
fast
+/-
esc
set tempo
stop
Contributor
-------------------------------------------------------------------------------
                            Saves The Day - At Your Funeral
-------------------------------------------------------------------------------

 / - slide up
 p - pull-off

Standard Tuning




INTRO (0:00)-(0:48)

    This song become the anthem of your underground   
e|----------------------------------------------------------------------------|
B|-3------------2-------------------------------------------------------------|
G|----------------------------------0-----------------------------------------|
D|-----------------------------------------------4----------------------------|
A|----------------------------------------------------------------------------|
E|------------------------------0-----------3---------------------------------|


    You're two floors down getting high in the back room
e|---------------------------------------------2------------------------------|
B|-3------------------2--------------------3----------------------------------|
G|------------------------------------0---------------------0--2--------------|
D|--------------------------------------------------------4-------------------|
A|----------------------------------------------------------------------------|
E|----------------------------------0----------------3------------------------|


    If I flooded out your house, do you think you'd make it out,   or would   
e|------------------------------------------------------2---------------------|
B|-3------------------------2----------------------3--------------------------|
G|-2------------------------2----------------0-------------------0-2----------|
D|-0------------------------2----------------------------------4--------------|
A|----------------------------------------------------------------------------|
E|--------------------------------------0--------------------3----------------|

    You burn up before the water fills your luuuuuuuuuungs
e|----------------------------------------------------------------------------|
B|--2---------------------------------------3---------2-----------------------|
G|--2------------------------0--------------4---------2-----------------------|
D|--2------------------------2--------------4---------2-----------------------|
A|---------------------------2--------------2---------------------------------|
E|----------------------------------------------------------------------------|


      And at your funeral I will sing the requiem
e|---------------------------------3------2-----------------------------------|
B|--3-----2----------2-------------3------3-----2-----------------------------|
G|--0-----3----------2-------------0------2-----2-----------------------------|
D|--0-----0----------2-------------0------------2-----------------------------|
A|--2------------------------------2------------------------------------------|
E|--3------------------------------3------------------------------------------|


VERSE (0:49)-(1:27)


     This song will      become the       anthem of your undergroud
e|-22--222--222--222----------------------33--333--333--333---3-3-3--3-3-3--3-33|
B|-33--333--333--333------22-222-222-222--33--333--333--333---3-3-3--3-3-3--3-33|
G|-22--222--222--222------22-222-222-222--00--000--000--000---0-0-0--0-0-0--0-00|
D|------------------------22-222-222-222--22--222--222--222---0-0-0--0-0-0--0-00|
A|----------------------------------------22--222--222--222---2-2-2--2-2-2--2-22|
E|----------------------------------------00--000--000--000---3-3-3--3-3-3--3-33|

     You're two floors   down getting     high  in  the back  room
e|-22--222--222--222----------------------33--333--333--333---3-3-3--3-3-3--3-33|
B|-33--333--333--333------22-222-222-222--33--333--333--333---3-3-3--3-3-3--3-33|
G|-22--222--222--222------22-222-222-222--00--000--000--000---0-0-0--0-0-0--0-00|
D|------------------------22-222-222-222--22--222--222--222---0-0-0--0-0-0--0-00|
A|----------------------------------------22--222--222--222---2-2-2--2-2-2--2-22|
E|----------------------------------------00--000--000--000---3-3-3--3-3-3--3-33|
   
    If I flooded out your house do you think you'd make it out
e|-22--222--222--222--------------------33--333--333--333---3-3-3--3-3-3--3-33--|
B|-33--333--333--333----22-222-222-222--33--333--333--333---3-3-3--3-3-3--3-33--|
G|-22--222--222--222----22-222-222-222--00--000--000--000---0-0-0--0-0-0--0-00--|
D|----------------------22-222-222-222--22--222--222--222---0-0-0--0-0-0--0-00--|
A|--------------------------------------22--222--222--222---2-2-2--2-2-2--2-22--|
E|--------------------------------------00--000--000--000---3-3-3--3-3-3--3-33--|

   Or would you burn up before the water fills your 
e|--------------0----0----0-0---0-------0---------------------------------------|
B|--------------2----0----2/3---2-------0---------------------------------------|
G|--------------2----2----2-2---2-------0---------------------------------------|
D|--------------2----2----2-2---2-------2---------------------------------------|
A|--------------0----0----0-0---0---2---2---------------------------------------|
E|------------------------------0---0-------------------------------------------|
 
     Lungs 
e|------------------------------------------------------------------------------|
B|--3-3---3-3-3--3-3-3--3-3-3----2-2-2--2-2-2--2-2-2--2-2-2---------------------|
G|--4-4---4-4-4--4-4-4--4-4-4----2-2-2--2-2-2--2-2-2--2-2-2---------------------|
D|--4-4---4-4-4--4-4-4--4-4-4----2-2-2--2-2-2--2-2-2--2-2-2---------------------|
A|--2-2---2-2-2--2-2-2--2-2-2---------------------------------------------------|
E|------------------------------------------------------------------------------|


CHORUS (1:27)-(1:46)

G   D          A            G        D    A
And at your funeral, I will sing the requiem


G    D           A                       G       D         A
I'd offer you my hand, it would hurt too much to watch you die 



VERSE (1:47)-(2:05)


        And you can  bet when we mourn the death of you that night
e|-22--222--222--222----------------------33--333--333--333---3-3-3--3-3-3--3-33|
B|-33--333--333--333--22--222-222-222-----33--333--333--333---3-3-3--3-3-3--3-33|
G|-22--222--222--222--22--222-222-222-----00--000--000--000---0-0-0--0-0-0--0-00|
D|--------------------22--222-222-222-----22--222--222--222---0-0-0--0-0-0--0-00|
A|----------------------------------------22--222--222--222---2-2-2--2-2-2--2-22|
E|----------------------------------------00--000--000--000---3-3-3--3-3-3--3-33|


     they'll lay me on the dinner table  I will be the          pig
e|-22--222--222--222----------------------33--333--333--333---3-3-3--3-3-3--3-33|
B|-33--333--333--333------22-222-222-222--33--333--333--333---3-3-3--3-3-3--3-33|
G|-22--222--222--222------22-222-222-222--00--000--000--000---0-0-0--0-0-0--0-00|
D|------------------------22-222-222-222--22--222--222--222---0-0-0--0-0-0--0-00|
A|----------------------------------------22--222--222--222---2-2-2--2-2-2--2-22|
E|----------------------------------------00--000--000--000---3-3-3--3-3-3--3-33|

    With the apple in my mouth the food that celebrates your end
e|------------------------------------------------------------------------------|
B|-----------2-0---2-/3----------------------33--333-333---22--222--222--22-----|
G|-----------2-2---2--2--0-----0----0---00---44--444-444---22--222--222--22-----|
D|-----------2-2---2--2--2-----2----2---22---44--444-444---22--222--222--22-----|
A|-----------------------2-----2----2---22---22--222-222------------------------|
E|-----------------------0-----0----0---00--------------------------------------|



CHORUS (x2)

G   D          A            G        D    A
And at your funeral, I will sing the requiem


G    D           A                       G       D         A
I'd offer you my hand, it would hurt too much to watch you die 


Guitar II OUTRO (2:35)-(2:54)

e|------------------------------------------------------------------------------|
B|---------12-10/7--------------------------------------------------------------|
G|-------------------11p9-----9--7----------------------------------------------|
D|-------------------------12------11-------------------------------------------|x8
A|------------------------------------------------------------------------------|
E|------------------------------------------------------------------------------|

          (2:55)-(3:05)
e|-------------------3---2------------------------------------------------------|
B|----3---3---2------3---3---2--------------------------------------------------|
G|----0---2---2------0---2---2--------------------------------------------------|
D|----0---0---2------0-------2--------------------------------------------------|
A|----2--------------2----------------------------------------------------------|
E|----3--------------3----------------------------------------------------------|
comments
print report bad tab
I want to post or [tab]
guest
You may want to rate the tab now too:
select rating
Please do not post tabs as comments. Select "correction" instead!