Oops, an error
Loading. Please wait.

At Your Funeral Tab

version 4
version 4

Whole song

Interactive

4,559 views 15 this week
no commentswrite comment
1 2 3 4 5
accurate
x 6
add to favorites
launch autoscroll
font size
0
reset
how to read this tab
guitar tuner
Autoscroll
slow
fast
+/-
esc
set tempo
stop
Help us to improve Ultimate-Guitar.com Take our survey!
×
Author
Saves The Day - At Your Funeral
Album - Stay What You Are

Comment corrections in the comment section. :)
---------
 intro
--------

This song will become   the anthem of     your  underground

-----------------|-----------------|-----------------|-----------------|
-----------------|-----------------|-----------------|-----------------|
-----------------|-----------------|-----------------|-----------------|
-12*-------------|-11--------------|------5----------|-----4-----------|
-----------------|-----------------|-7---------------|-----------------|
-----------------|-----------------|-----------------|-3---------------|

   Your two floors down      getting high in the back  room

-----------------|-----------------|----------------|-----------------|
-----------------|-----------------|-------------7--|-----------------|
-----------------|-----------------|---------7------|---------0---2---|
-12*-------------|--11-------------|------5---------|-----4-----------|
-----------------|-----------------|--7-------------|-----------------|
-----------------|-----------------|----------------|-3---------------|

  If I flooded out your house do you think you'd make it out    or would you
 .   .   .   .     .   .   .   .     .   .   .   .     .   .   .   .
-----------------|-----------------|----------------|-----------------|
-3---------------|-2---------------|------------7---|-----------------|
-2---------------|-2---------------|---------7------|---------0---2---|
-0---------------|-2---------------|-----5----------|-----4-----------|
-----------------|-0---------------|--7-------------|-----------------|
-----------------|-----------------|----------------|-3---------------|


 burn up before the water filled your lungs

-----------------|-----------------|-----------------|-----------------|
-2---------------|-0---------------|-3---------------|-2---------------|
-2---------------|-0---------------|-4---------------|-2---------------|
-2---------------|-2---------------|-4---------------|-2---------------|
-0---------------|-2---------------|-2---------------|-0---------------|
-----------------|-0---------------|-----------------|-----------------|


     And at the funeral       I will sing      the     requiem
Use a drive here to get the distortion.

-----------------|-----------------|-3---------------|---------0-------|
-3-------3-------|-2~--------------|-3---------------|-3-------2~------|
-0-------2-------|-2~--------------|-0---------------|-2-------2~------|
-0-------0-------|-2~--------------|-0---------------|-0-------2~------|
-2---------------|-0~--------------|-2---------------|---------0~------|
-3---------------|-----------------|-3---------------|-----------------|

--------
verse
-------
Figure out strumming yourself. =/You can also use powerchords instead of these open chords.

-----------------|-----------------|-----------------|---3--3--3--3----|
---3--3--3--3----|-----------------|-----------------|---3--3--3--3----|
---2--2--2--2----|---2--2--2--2----|-----------------|---0--0--0--0----|
---0--0--0--0----|---2--2--2--2----|---2--2--2--2----|---0--0--0--0----|
-----------------|---0--0--0--0----|---2--2--2--2----|---2--2--2--2----|
-----------------|-----------------|---0--0--0--0----|---3--3--3--3----|

-----------------|-----------------|-----------------|---3--3--3--3----|
---3--3--3--3----|-----------------|-----------------|---3--3--3--3----|
---2--2--2--2----|---2--2--2--2----|-----------------|---0--0--0--0----|
---0--0--0--0----|---2--2--2--2----|---2--2--2--2----|---0--0--0--0----|
-----------------|---0--0--0--0----|---2--2--2--2----|---2--2--2--2----|
-----------------|-----------------|---0--0--0--0----|---3--3--3--3----|

-----------------|-----------------|-----------------|---3--3--3--3----|
---3--3--3--3----|-----------------|-----------------|---3--3--3--3----|
---2--2--2--2----|---2--2--2--2----|-----------------|---0--0--0--0----|
---0--0--0--0----|---2--2--2--2----|---2--2--2--2----|---0--0--0--0----|
-----------------|---0--0--0--0----|---2--2--2--2----|---2--2--2--2----|
-----------------|-----------------|---0--0--0--0----|---3--3--3--3----|


-----------
pre chorus
------------------------------------------------------------------------|
-----------------|-----------------|-----------------|------------------|
-----------------|-----------------|-----------------|------------------|
---2--2--2--2----|-----------------|-----------------|------------------|
---2--2--2--2----|---2--2--2--2----|---9--9--9--9----|---7--7--7--7-----|
---0--0--0--0----|---2--2--2--2----|---9--9--9--9----|---7--7--7--7-----|
-----------------|---0--0--0--0----|---7--7--7--7----|---5--5--5--5-----|

-------
Chorus
------


-----------------|-----------------|-----------------|-----------------|
-----------------|-----------------|-----------------|-----------------|
-----------------|---7--7--7--7----|-----------------|-----------------|
---5--5--5--5----|---7--7--7--7----|---7--7--7--7----|---7--7--7--7----|
---5--5--5--5----|---5--5--5--5----|---7--7--7--7----|---7--7--7--7----|
---3--3--3--3----|-----------------|---5--5--5--5----|---5--5--5--5----|

-----------------|-----------------|-----------------|-----------------|
-----------------|-----------------|-----------------|-----------------|
-----------------|---7--7--7--7----|-----------------|-----------------|
---5--5--5--5----|---7--7--7--7----|---7--7--7--7----|---7--7--7--7----|
---5--5--5--5----|---5--5--5--5----|---7--7--7--7----|---7--7--7--7----|
---3--3--3--3----|-----------------|---5--5--5--5----|---5--5--5--5----|

--------
verse
-------

-----------------|-----------------|-----------------|---3--3--3--3----|
---3--3--3--3----|-----------------|-----------------|---3--3--3--3----|
---2--2--2--2----|---2--2--2--2----|-----------------|---0--0--0--0----|
---0--0--0--0----|---2--2--2--2----|---2--2--2--2----|---0--0--0--0----|
-----------------|---0--0--0--0----|---2--2--2--2----|---2--2--2--2----|
-----------------|-----------------|---0--0--0--0----|---3--3--3--3----|

-----------------|-----------------|-----------------|---3--3--3--3----|
---3--3--3--3----|-----------------|-----------------|---3--3--3--3----|
---2--2--2--2----|---2--2--2--2----|-----------------|---0--0--0--0----|
---0--0--0--0----|---2--2--2--2----|---2--2--2--2----|---0--0--0--0----|
-----------------|---0--0--0--0----|---2--2--2--2----|---2--2--2--2----|
-----------------|-----------------|---0--0--0--0----|---3--3--3--3----|

-----------------|-----------------|-----------------|---3--3--3--3----|
---3--3--3--3----|-----------------|-----------------|---3--3--3--3----|
---2--2--2--2----|---2--2--2--2----|-----------------|---0--0--0--0----|
---0--0--0--0----|---2--2--2--2----|---2--2--2--2----|---0--0--0--0----|
-----------------|---0--0--0--0----|---2--2--2--2----|---2--2--2--2----|
-----------------|-----------------|---0--0--0--0----|---3--3--3--3----|


-----------
pre chorus
------------------------------------------------------------------------|
-----------------|-----------------|-----------------|------------------|
-----------------|-----------------|-----------------|------------------|
---2--2--2--2----|-----------------|-----------------|------------------|
---2--2--2--2----|---2--2--2--2----|---9--9--9--9----|---7--7--7--7-----|
---0--0--0--0----|---2--2--2--2----|---9--9--9--9----|---7--7--7--7-----|
-----------------|---0--0--0--0----|---7--7--7--7----|---5--5--5--5-----|

-------
Chorus
------


-----------------|-----------------|-----------------|-----------------|
-----------------|-----------------|-----------------|-----------------|
-----------------|---7--7--7--7----|-----------------|-----------------|
---5--5--5--5----|---7--7--7--7----|---7--7--7--7----|---7--7--7--7----|
---5--5--5--5----|---5--5--5--5----|---7--7--7--7----|---7--7--7--7----|
---3--3--3--3----|-----------------|---5--5--5--5----|---5--5--5--5----|

-----------------|-----------------|-----------------|-----------------|
-----------------|-----------------|-----------------|-----------------|
-----------------|---7--7--7--7----|-----------------|-----------------|
---5--5--5--5----|---7--7--7--7----|---7--7--7--7----|---7--7--7--7----|
---5--5--5--5----|---5--5--5--5----|---7--7--7--7----|---7--7--7--7----|
---3--3--3--3----|-----------------|---5--5--5--5----|---5--5--5--5----|

-------
Coda
------
Gtr 1.

-----------------|-----------------|-----------------|-----------------|
-----------------|-----------------|-----------------|-----------------|
-----------------|---7--7--7--7----|-----------------|-----------------|
---5--5--5--5----|---7--7--7--7----|---7--7--7--7----|---7--7--7--7----|
---5--5--5--5----|---5--5--5--5----|---7--7--7--7----|---7--7--7--7----|
---3--3--3--3----|-----------------|---5--5--5--5----|---5--5--5--5----|

-----------------|-----------------|-----------------|-----------------|
-----------------|-----------------|-----------------|-----------------|
-----------------|---7--7--7--7----|-----------------|-----------------|
---5--5--5--5----|---7--7--7--7----|---7--7--7--7----|---7--7--7--7----|
---5--5--5--5----|---5--5--5--5----|---7--7--7--7----|---7--7--7--7----|
---3--3--3--3----|-----------------|---5--5--5--5----|---5--5--5--5----|


Gtr 2.

-7-5-------------|
-----7-5---5-----|
---------7---7--6| Repeat that for the coda.
-----------------|
-----------------|
-----------------|

----
End
---
Gtr 1.


-----------------|-----------------|-----------------|
-----------------|-----------------|-----------------|
-----------------|---7~------------|-----------------|
---5~------------|---7~------------|---7~------------|
---5~------------|---5~------------|---7~------------|
---3~------------|-----------------|---5~------------|

Repeat to the end

Gtr 2.


----------------|
-7~-------------| Just hold that note, you'll hear it.
----------------|
----------------| If not,
----------------| 2:54 is the time it is played.
----------------|

Finito.
Suggest correction
comments
print report bad tab
guest
You may want to rate the tab now too:
select rating
Wanna post a correction for this tab? Suggest correction