Oops, an error
Loading. Please wait.

Because You Are No Other Tab

559 views 3 this week
1 commentread comment
1 2 3 4 5
please rate
add to favorites
launch autoscroll
font size
0
reset
how to read this tab
guitar tuner
Autoscroll
slow
fast
+/-
esc
set tempo
stop
Help us to improve Ultimate-Guitar.com Take our survey!
×
Author
Saves The Day
Because You Are No Other
Under The Boards
12/15/07
sn.fifty@gmail.com

Eb Tuning

1st Verse
eb|----------------------------------------|
Bb|-bass-----------------------------------|
Gb|----------------------------------------|
Db|----------------------------------------|
Ab|-------------------7777-6666-4444-6666--|
Eb|-44444444-77777777----------------------|

eb|----------------------------------------|
Bb|----------------------------------------|
Gb|-------------------9999-8888-6666-8888--|
Db|-------------------xxxx-xxxx-xxxx-xxxx--|
Ab|-------------------7777-6666-4444-6666--|
Eb|----------------------------------------|


Chorus
eb|--------------------------------------------|
Bb|--------------------------------------------|
Gb|---------------------6-6-6666----9------11--|
Db|-6-6-6666--9-9-9999--6-6-6666--999--111111--|
Ab|-6-6-6666--9-9-9999--4-4-4444--777--9-9-9---|
Eb|-4-4-4444--7-7-7777-------------------------| x2


2nd Verse
eb|---4---4----------|
Bb|-4-4---4----------|
Gb|-4-4---4----------|
Db|-6-6-666--6~------|
Ab|-6-6-666--6~------|
Eb|-4-4-444--4~------|

eb|----------------------------------------|
Bb|-----4---------7---------0-------0------|
Gb|----4--4------8--8------1-----3---------|
Db|-6---------9---------2-----2------------|
Ab|----------------------------------------|
Eb|----------------------------------------| x3

Play at end of this verse
eb|--guitar one left-------|--two right---|
Bb|------------------------|--------------|
Gb|--9999-8888-6666-8888---|-----3b4r3----|
Db|--xxxx-xxxx-xxxx-xxxx---|--2--------4--|
Ab|--7777-6666-4444-6666---|--------------|
Eb|------------------------|--------------|


Chorus again


Post-Chorus (two guitars doing different things)
eb|------------0-------------0------------0-------------------|
Bb|------------0-------------0---------(9)0-------------------|
Gb|---------9--0--------(9~)-0--------9---0--------9-99-9-99--|
Db|-666-999-9----666-999-2----666-999-9----666-999-9-99-9-99--|
Ab|-666-999-7----666-999-2----666-999-7----666-999-7-77-7-77--|
Eb|-444-777----9\444-777-0--9\444-777----9\444-777------------|


Bridge
Left
eb|------------------------------------------|
Bb|-----4---------7---------7---------7------|
Gb|----4--4------8--8------8--8------8--8----|
Db|------------------------------9-----------|
Ab|---------------------7---------7----------|
Eb|-4---------7------------------------------| x4.5

Right
eb|-------------------------------------|
Bb|-----4---------7---------0-------0---|
Gb|------------------------------3b-----|
Db|-6---------9---------2---------------|
Ab|-------------------------------------|
Eb|-------------------------------------| x4 (overlaps below)

Play at end of this bridge
eb|--guitar one left-------|--two right---|
Bb|------------------------|--------------|
Gb|--9999-8888-6666-8888---|-----3b4r3----|
Db|--xxxx-xxxx-xxxx-xxxx---|-----------4--|
Ab|--7777-6666-4444-6666---|--------------|
Eb|------------------------|--------------|


Repeat Chorus x2.5

Bass riff at end (yes, elevens)
Gb|-----------------------------------------------|
Db|--------------------9988-----------------------|
Ab|-1111111111111111-99----99-88888888-777--999\--|
Eb|-----------------------------------------------|

Outro
eb|----------------|
Bb|----------------|
Gb|---------9~-----|
Db|-666-999-9~-----|
Ab|-666-999-7~-----|
Eb|-444-777--------|
Suggest correction
Give kudos to tab author, rate the tab!
1 2 3 4 5
comments
print report bad tab
1 comment total.
0 reply
AJdawg311 10 wrote on July 24 2013, 08:43 pm

sweet sweet

guest
You may want to rate the tab now too:
select rating
Please do not post tabs as comments. Select "correction" instead!