Oops, an error
Loading. Please wait.

Cant Stay The Same Tab

version 2
version 2

Whole song

1,521 views 1 this week
no commentswrite comment
1 2 3 4 5
please rate
add to favorites
launch autoscroll
font size
0
reset
how to read this tab
guitar tuner
Autoscroll
slow
fast
+/-
esc
set tempo
stop
Help us to improve Ultimate-Guitar.com Take our survey!
×
Author
#----------------------------------PLEASE NOTE--------------------------------#
#This file is the author's own work and represents their interpretation of the#
#song. You may only use this file for private study, scholarship, or research.#
#-----------------------------------------------------------------------------#
#-- File created with Instab - http://www.pconline.com/~smcarey/instab.html --#
#-----------------------------------------------------------------------------#

Author/Artist: Saves The Day
Title: Can't Stay the Same
Album: Under the Boards
Transcribed by: Caleb B.
Email: bonsushi@hotmail.com
Submitted to: www.ultimate-guitar.com

I didn't see a tab, so I made one.

Tuning: 1/2 step down:
eb
bb
gb
Db
Ab
Eb


Intro/Verse
------------------------------------------------------------------------------|
------------------------------------------------------------------------------|
------------------------------------------------------------------------------|
-6---6---2---2---2------------------------------------------------------------|
-7h9-7---4---4h5-4--4---------------------------------------------------------|
--------------------5---------------------------------------------------------|

Chorus:
------------------------------------------------------------------------------|
------------------------------------------------------------------------------|
-----------9-9-9-9--11-11-11-11--7-7-7-7--------------------------------------|
--7-7-7-7--9-9-9-9--11-11-11-11--7-7-7-7--------------------------------------|
--7-7-7-7--7-7-7-7--9--9--9--9---5-5-5-5--------------------------------------|
--5-5-5-5---------------------------------------------------------------------|

Bridge:
------------------------------------------------------------------------------|
------------------------------------------------------------------------------|
------------------------------------------------------------------------------|
------------------------------------------------------------------------------|
--9-9-9-9-9-9-9-9-9-9-9-9-9-9-11-11-11-11-11-11-11-11-12-12-5-5-5-5-5-5-5-7-7-|
------------------------------------------------------------------------------|


------------------------------------------------------------------------------|
------------------------------------------------------------------------------|
------------------------------------------------------------------------------|
------------------------------------------------------------------------------|
--7-7-7-7-7-7-5-5-5-5-5-5-5-5-7-7-7-7-7-7-7-7--9-9-9-9-9-9-9-9-9-9-9-9-9-9-9--|
------------------------------------------------------------------------------|


------------------------------------------------------------------------------|
------------------------------------------------------------------------------|
------------------------------------------------------------------------------|
------------------------------------7-----------------------------------------|
-9-7-7-7-7-7-7-7-7-7-7-7-7-7-7-7-7--7-----------------------------------------|
------------------------------------5-----------------------------------------|
                                 strum this chord a few times
Chorus:
------------------------------------------------------------------------------|
------------------------------------------------------------------------------|
-----------9-9-9-9--11-11-11-11-7-7-7-7---------------------------------------|
--7-7-7-7--9-9-9-9--11-11-11-11-7-7-7-7---------------------------------------|
--7-7-7-7--7-7-7-7--9--9--9--9--5-5-5-5---------------------------------------|
--5-5-5-5---------------------------------------------------------------------|

End on: (slide down)
------------------------------------------------------------------------------|
------------------------------------------------------------------------------|
------------------------------------------------------------------------------|
--7\--------------------------------------------------------------------------|
--7\--------------------------------------------------------------------------|
--5\--------------------------------------------------------------------------|
Suggest correction
Give kudos to tab author, rate the tab!
1 2 3 4 5
comments
print report bad tab
guest
You may want to rate the tab now too:
select rating
Wanna post a correction for this tab? Suggest correction