Oops, an error
Loading. Please wait.

Cant Stay The Same Tab

version 4
version 4

Whole song

104 views 1 this week
no commentswrite comment
1 2 3 4 5
please rate
add to favorites
launch autoscroll
font size
0
reset
how to read this tab
guitar tuner
Autoscroll
slow
fast
+/-
esc
set tempo
stop
Help us to improve Ultimate-Guitar.com Take our survey!
×
Author
Difficulty
Tuning
intermediate
D# G# C# F# A# D#
Author/Artist: Saves The Day
Title: Can't Stay the Same
Album: Under the Boards
by Adam

A lot of this was copied from another tab, I just added the second part of the bridge

Intro (x4) and Verse:

eb|------------------|
Bb|------------------|
Gb|------------------|
Db|-6/7\6-2-2/4\2----|
Ab|-7/9\7-4-4/5\4-44-|
Eb|---------------55-|

Chorus:

eb|----------------------|
Bb|----------------------|
Gb|------9999------7777--|
Db|-7777-9999-4444-7777--|x4
Ab|-7777-7777-4444-5555--|
Eb|-5555------2222-------|

Repeat the Intro riff once and then play the verse again.

Bridge 1

eb|---------------------------------------------------------|
Bb|---------------------------------------------------------|
Gb|---------------------------------------------------------|
Db|---------------------------6h7h6-6-6-6-6-6-6-6-6-6-6-6-6-|
Ab|-9-9-9-9-9-9-9-9-9-9-9-9-9-------------------------------|
Eb|---------------------------------------------------------|
P.M - - - - - - - - - - - - -       - - - - - - - - - - - -

eb|----------------------------------------------------------------|
Bb|----------------------------------------------------------------|
Gb|----------------------------------------------------------------|
Db|-4-4-4-4-4-4-4-4-6-6-6-6-6-6-6-6-4-4-4-4-4-4-4-4-6-6-6-6-6-6-6-6|
Ab|-5-5-5-5-5-5-5-5-7-7-7-7-7-7-7-7-5-5-5-5-5-5-5-5-7-7-7-7-7-7-7-7|
Eb|----------------------------------------------------------------|
P.M - - - - - - - - - - - - - - - - - - - - - - - - - - - - - - - -

eb|---------------------------------------------------------------------|  
Bb|---------------------------------------------------------------------|  
Gb|---------------------------------1-1-1-1-1-1-1-1-1-1-1-1-1-1-1-1--2~-|  
Db|-4-4-4-4-4-4-4-4-4-4-4-4-4-4-4-4-2-2-2-2-2-2-2-2-2-2-2-2-2-2-2-2--4~-|
Ab|-4-4-4-4-4-4-4-4-4-4-4-4-4-4-4-4-2-2-2-2-2-2-2-2-2-2-2-2-2-2-2-2--5~-|  
Eb|-2-2-2-2-2-2-2-2-2-2-2-2-2-2-2-2-0-0-0-0-0-0-0-0-0-0-0-0-0-0-0-0-----|  

P.M - - - - - - - - - - - - - - - - - - - - - - - - - - - - - - - -


Bridge 2 (palm mute):
----------------------------------|
---------------------2-------2----|
-----6-------4---------2---2---2--|
---7---7-------6---4-----0--------|
-0---------7----------------------|
---------0-------2----------------|

Ending:

eb|----------------------|
Bb|----------------------|
Gb|------9999------7777--|
Db|-7777-9999-4444-7777--|x8
Ab|-7777-7777-4444-5555--|
Eb|-5555------2222-------|
Suggest correction
What's this?
You can suggest a correction to this tab. Community and Mods will review your correction and vote to approve or reject it.
comments
We did not receive enough feedback on this tab! Please rate:
print report bad tab
1 2 3 4 5
guest
You may want to rate the tab now too:
select rating
Please do not post tabs as comments. Select "correction" instead!