Oops, an error
Loading. Please wait.

Cars And Calories Tab

5,158 views 12 this week
no commentswrite comment
1 2 3 4 5
x 5
add to favorites
launch autoscroll
font size
0
reset
how to read this tab
guitar tuner
Autoscroll
slow
fast
+/-
esc
set tempo
stop
Help us to improve Ultimate-Guitar.com Take our survey!
×
Saves The Day - "Cars and Calories"
Tabbed by: Christopher Lam

Intro
e|---------3-3-3-3-3-3-3-3-3-3-3-3-5-5-5-5-3-3-3-3-5-5-5-5-------------1------|
B|-5-5-5-5-5-5-5-5-5-5-5-5-5-5-5-5-5-5-5-5-3-3-3-3-5-5-5-5-------------1------|
G|-5-5-5-5-5-5-5-5-5-5-5-5-5-5-5-5-5-5-5-5-4-4-4-4-5-5-5-5-------------2------|
D|-4-4-4-4-3-3-3-3-5-5-5-5-5-5-5-5-7-7-7-7-5-5-5-5-7-7-7-7-------------3------|
A|-3-3-3-3-3-3-3-3-3-3-3-3-3-3-3-3-7-7-7-7-5-5-5-5-7-7-7-7-------------3------|
E|---------------------------------5-5-5-5-3-3-3-3-5-5-5-5-------------1------|

Verse                                      
e|-5-5-5-3-1-1-1-1-5-5-5---1-1-1-1-5-5-5-3-1-1-1-1-5-5-5-7-1------------------|
B|-5-5-5-3-1-1-1-1-5-5-5---1-1-1-1-5-5-5-3-1-1-1-1-5-5-5-7-1----------5-------|
G|-5-5-5-4-2-2-2-2-5-5-5---1-1-1-1-5-5-5-4-2-2-2-2-5-5-5-7-2----------5-------|
D|-7-7-7-5-3-3-3-3-7-7-7---3-3-3-3-7-7-7-5-3-3-3-3-7-7-7-9-3----------4-------|
A|-7-7-7-5-3-3-3-3-7-7-7---3-3-3-3-7-7-7-5-3-3-3-3-7-7-7-9-3----------3-------|
E|-5-5-5-3-1-1-1-1-5-5-5-0-1-1-1-1-5-5-5-3-1-1-1-1-5-5-5-7-1------------------|

Rythym Guitar in Chorus                                    
e|-0-0-0-0--0-----------------------------------------------------------------|
B|-1-3-1-1--1-----------------------------------------------------------------|
G|-2-2-2-0--2-----------------------------------------------------------------|
D|-2-2-2-0--3-----------------------------------------------------------------|
A|-0-0-0-0--------------------------------------------------------------------|
E|----------------------------------------------------------------------------|

Lead Guitar in Chorus
e|-------0------------------0-------------------------------------------------|
B|-----3---1-3-0-1-------1----1------1-3-3-5-3-5------------------------------|
G|---------------------2---2----2---2--4-4-5-4-5------------------------------|
D|---2---------------2------------3----5-5-5-5-5------------------------------|
A|-3---------------0----------------------------------------------------------|
E|----------------------------------------------------------------------------|

Bridge
e|---------3-3-3-3-3-3-3-3-3-3-3-3------3-------------------------------------|
B|-5-5-5-5-5-5-5-5-5-5-5-5-5-5-5-5------5-------------------------------------|
G|-5-5-5-5-5-5-5-5-5-5-5-5-5-5-5-5--5-4-5-------------------------------------|
D|-4-4-4-5-3-3-3-3-5-5-5-5-5-5-5-5--4-3-5-------------------------------------|
A|-3-3-3-3-3-3-3-3-3-3-3-3-3-3-3-3--3-2-3-------------------------------------|
E|----------------------------------------------------------------------------|
Suggest correction
comments
print report bad tab
guest
You may want to rate the tab now too:
select rating
Wanna post a correction for this tab? Suggest correction