Oops, an error
Loading. Please wait.

Cars And Calories Bass Tab

version 2
version 2

Whole song

673 views 1 this week
no commentswrite comment
1 2 3 4 5
please rate
add to favorites
launch autoscroll
font size
0
reset
guitar tuner
Autoscroll
slow
fast
+/-
esc
set tempo
stop
Help us to improve Ultimate-Guitar.com Take our survey!
×
Difficulty
intermediate
Cars and Calories
by Saves the Day
tabbed by Adam
www.ebenrocks.8m.com

Some fills are missing, the intro may be incorrect

Intro
G|-------------------------------| 
D|-7777777-5---------------------|  
A|-----------7-5-----------------|  
E|---------------8-7-5-----------|  

Verse 1
G|---------------------------------------------------------| 
D|-----------------------3333-3333-----------2-0---2-0-----|  
A|---------------------------------02-333--3-----3-----3-2-|  
E|-555-3-5--333-1-3-5555-----------------------------------|  

G|----------------------| 
D|----------------------|  
A|----------------------|  
E|-5555-333-1-3-555-----|  

Chorus
G|--------------------------------------------------------| 
D|------2-0-------2-0-------2-0-------------3---------3---|  
A|-------------------------------------3h5----5-3---2-----|  
E|--1-1-----3-1-1-----3-1-1-----3-11--------------5-------|  

Verse 2 (lock in with drums, this part may be off)
G|-------------------------------------| 
D|-/4---------7---------3--------------|  
A|----------7-------3h5---5p3-2--------|  
E|-----3-5------3-5--------------------|  

G|---------------------------------------------------------| 
D|-----------------------3333-3333-----------2-0---2-0-----|  
A|---------------------------------02-333--3-----3-----3-2-|  
E|-555-3-5--333-1-3-5555-----------------------------------| 

Repeat Chorus

Bridge
G|-------------------------------------------------------------------| 
D|---------------------------2-0h2--------------5-7-----------2-0h2--|  
A|-3---2-3-2-0-----0----------------3--2-3-5-7------5-7--------------|  
E|---------------3---3--1--3-----------------------------1--3--------|  

G|--------------------------------------------------| 
D|-------------------------------2-0h2-4------------|  
A|-33333-2-3-5-7-5--3-2-------------------/9-slide--|  
E|----------------------3-5--1-3--------------------|  

Verse 3
G|-------------------------------------------------------------------------| 
D|-4444-333-----------2-0---2-0---5-------------5-------7--12\-4444444444--|  
A|------------0-2-333-----3-----3---3-------------5-6-7--------------------|  
E|----------3--------------------------5555-333----------------------------|

G|------------------------------------------------| 
D|-3333-------5---5-------------------------------|  
A|------333-7---7---7-5-3-------------------------|  
E|--------------------------5555-333-1-3-5555-----|


Chorus
G|----------------------------------------------| 
D|------2-0-------2-0-------2-0---------------3-|  
A|------------------------------------------2---|  
E|--1-1-----3-1-1-----3-1-1-----3-11111---5-----|

G|----------------------------------------------------------------| 
D|-2-0-2-3------------2-0-2-3------------2-0-2-3------------------|  
A|-------------3h5p3--------------3h5p3--------------3-------2-3--|  
E|---------3h5----------------3h5----------------3h5---5p3-5------|
comments
We did not receive enough feedback on this tab! Please rate:
print report bad tab
1 2 3 4 5
I want to post or [tab]
guest
You may want to rate the tab now too:
select rating
Please do not post tabs as comments. Select "correction" instead!