Oops, an error
Loading. Please wait.

Coconut Tab

version 2
version 2

Whole song

206 views 3 this week
no commentswrite comment
1 2 3 4 5
please rate
add to favorites
launch autoscroll
font size
0
reset
how to read this tab
guitar tuner
Autoscroll
slow
fast
+/-
esc
set tempo
stop
Help us to improve Ultimate-Guitar.com Take our survey!
×
Difficulty
Tuning
intermediate
D# G# C# F# A# D#
Saves The Day – Coconut
Tune Down 1/2 step

Guitar 1:

|------2-----2------------------4-------|
|---5--2--3--2--3--3--2-------2---2-----|
|---2--2--2--2--2--2--1-----2-------2---|
|---2--2--4--2--4--4--2-2/4-----------4-|
|---0--0--0--4--2--2--1-----------------|
|------------2--2-----------------------| x2

Prechorus:
---------------------0-1-0------------------------------------------------|
-----3-------2----3--3-----3---3-0h2---2---0------0---------0-0-0----2--2-|
-------2-------4--2--2-------2-2-0h2---2---2-2----2---0h1---1-1-1----3--3-|
---4-------3------0--0---------------2-2-2-----2------0h2---2-2-2----2--2-|
-2-------4---------------------------0---0-------0--0-------2-2-2---------|
----------------------------------------------------------0---0--0-1-2-2--|

Chorus:
|-------------------------4----4-4-2---------|
|-3---3--2--2-2-2---------2----2-2---2---5---|
|-2---2--4--4-4-4-4-4---2-2------2-------2---|
|-4---4--3--3-3-3-3-3-4---4--4---4-----4---4-|
|-2---2--4--4-4-4--------------|-------------| x2
|--------------------------------------------|


|----------|---------|------0-1---0-|------------|
|------3---|-----2---|-3------------|-3-----3----|
|--------2-|-------4-|-2------------|----2-----2-|
|----4-----|---3-----|-0------------|------------|
|-2--------|-4-------|--------------|------------|
|----------|---------|--------------|------------|

Bridge:
|-4-4-4-4-4-4-4-5-5-5-5-4-4-4-4-2-2-2-2-2-2-2-2-4-4-4-4-4-4-4-4-|
|-2-2-2-2-2-2-2-2-2-2-2-2-2-2-2-2-2-2-2-2-2-2-2-2-2-2-2-2-2-2-2-|
|-2-2-2-2-2-2-2-2-2-2-2-2-2-2-2-2-2-2-2-2-2-2-2-2-2-2-2-2-2-2-2-|
|-3-3-3-3-3-3-3-2-2-2-2-2-2-2-2-4-4-4-4-4-4-4-4-3-3-3-3-3-3-3-3-|
|---------------------------------------------------------------|
|---------------------------------------------------------------|

|-5-5-5-5-4-4-2-2--1--|
|-2-2-2-2-2-2-2-2--3--|
|-2-2-2-2-2-2-2-2--2--|
|-2-2-2-2-2-2-2-2--0--|
|---------------------|
|---------------------|

Verse (Under Solo)
Prechorus
Chorus

Ending:
eb|-1---------------|
Bb|-3---------------|
F#|-2---------------|
Db|-0---------------|
Ab|-----------------|
Eb|-----------------|


Guitar 2:

Over Chorus:
eb|-----------------|-----------------|-----------------|-----------------|
Bb|-----141414--12--|-10------9-------|-10--------------|-12--------------|
F#|-----141414--13--|-11------9-------|-11--------------|-13--------------|
Db|-----------------|-----------------|-----------------|-----------------|
Ab|-----------------|-----------------|-----------------|-----------------|
Eb|-----------------|-----------------|-----------------|-----------------|

eb|-----------------|-----------------|-----------------|-----------------|
Bb|-----141414--12--|-10------9-------|-10--------------|-12--------------|
F#|-----141414--13--|-11------9-------|-11--------------|-13--------------|
Db|-----------------|-----------------|-----------------|-----------------|
Ab|-----------------|-----------------|-----------------|-----------------|
Eb|-----------------|-----------------|-----------------|-----------------|

Solo:
eb|------------------------------------------------------------------|
Bb|------------------------------------------------------------------|
F#|------------------------------------------------------------------|
Db|------------------------------------------------------------------|
Ab|------------------------------------------------------------------|
Eb|-12/14--12/9--9/12---9/5--4/5/7-9--12/14--12/9--9/12---9/5--4/5/7-|

eb|-------------------------------------------------------------|
Bb|-------------------------------------------------------------|
F#|-----------------------------6/2---7-6-4-------7-6-4---------|
Db|-6/7/6---------------6/7/6-------4-------7-6-4-------7-6-4-7-|
Ab|-------9--7----7--9--------9---------------------------------|
Eb|------------9------------------------------------------------|

End On:
eb|-----------------|
Bb|-10--------------|
F#|-11--------------|
Db|-----------------|
Ab|-----------------|
Eb|-----------------|
Suggest correction new What's this?
You can suggest a correction to this tab. Community and Mods will review your correction and vote to approve or reject it.
comments
We did not receive enough feedback on this tab! Please rate:
print report bad tab
1 2 3 4 5
guest
You may want to rate the tab now too:
select rating
Please do not post tabs as comments. Select "correction" instead!