Oops, an error
Loading. Please wait.

Collision Tab

366 views 1 this week
2 commentsread comments
1 2 3 4 5
please rate
add to favorites
launch autoscroll
font size
0
reset
how to read this tab
guitar tuner
Autoscroll
slow
fast
+/-
esc
set tempo
stop
Help us to improve Ultimate-Guitar.com Take our survey!
×
Difficulty
intermediate
-------------------------------------------------------------------------------
                             Collision - Saves The Day
-------------------------------------------------------------------------------

intro
||------------------------------||
||------------------------------||
||--9-7-6---------11111111------||
||--9-7-6-4~--4~--11111111-4-4--||
||--7-5-4-4~--4~--9999-----4-4--||
||--------2~--2~-----------2-2--||


 verse guitar 1
1.                2.
||--------------------------------------------------------------|-------|----------||
||--------------------------------------------------------------|-------|----------||
||-----------676-----77-777-777-777-7----------676--------------|-7/6---|-77-777-7-||
||--44-444-4-676-7---77-777-777-777-7-44-444-4-676-7-7-99-999-9-|-----7-|-77-777-7-||
||--44-444-4-454-7---55-555-555-555-5-44-444-4-454-7-7-99-999-9-|-5/4---|-55-555-5-||
||--22-222-2-----5--------------------22-222-2-----5-5-77-777-7-|-----5-|----------||
|
| verse guitar 2
||------------------------------------------------------------------------||
||o----------------------------------------------------------------------o||
||-----------676-----77-777-777-777-7----------676--------------77-777-7--||
||--44-444-4-676-7---77-777-777-777-7-44-444-4-676-7-7-99-999-9-77-777-7--||
||o-44-444-4-454-7---55-555-555-555-5-44-444-4-454-7-7-99-999-9-55-555-5-o||
||--22-222-2-----5--------------------22-222-2-----5-5-77-777-7-----------||


chorus guitar 1
||--------------------------------------------------------------------||
||--------------------------------------------------------------------||
||-----6~------4~---------------6-7-----6~------4~---77-777-799-91111-||
||---7~--7~--6~--6~-------------6-7---7~--7~--6~--6~------------------||
||-----------------444444444444-4-5------------------55-555-577-799---||
||-5~------4~------222222222222-----5~------4~------------------------||
| pm               ............
|
| chorus guitar 2
||-------------------------------------------------------||
||-------------------------------------------------------||
||-----6~------4~---------------6-7-----6~------4~-------||
||---7~--7~--6~--6~-------------6-7---7~--7~--6~--6~-2~--||
||-----------------444444444444-4-5------------------2~--||
||-5~------4~------222222222222-----5~------4~-------0~--||
  pm               ............


chorus cont. guitar 1
||---------------------------------------------------------------||
||---------------------------------------------------------------||
||-----6~------4~------------------------6~------4~-------7------||
||---7~--7~--6~--6~--------------------7~--7~--6~--6~-2~--7-9/7--||
||-----------------4444444444444444-------------------2~--5-7/5--||
||-5~------4~------2222222222222222--5~------4~-------0~---------||
| pm               ................
|
| chorus cont. guitar 2
||-----------------------------------------------------------||
||-----------------------------------------------------------||
||-----6~------4~------------------------6~------4~-------7--||
||---7~--7~--6~--6~--------------------7~--7~--6~--6~-2~--7--||
||-----------------4444444444444444-------------------2~--5--||
||-5~------4~------2222222222222222--5~------4~-------0~-----||
  pm               ................


verse 2 guitar 1
||---------------------------------------------------------------------||
||---------------------------------------------------------------------||
||-----------676-----77-777-777-777-7----------676---------------7/6---||
||--44-444-4-676-7---77-777-777-777-7-44-444-4-676-7-7-99-999-9------7-||
||--44-444-4-454-7---55-555-555-555-5-44-444-4-454-7-7-99-999-9--5/4---||
||--22-222-2-----5--------------------22-222-2-----5-5-77-777-7------5-||
|
| verse 2 guitar 2
||------------------------------------------------------------------------||
||------------------------------------------------------------------------||
||-----------676-----11119-9-7-7-6-6-----------676--------------77-777-7--||
||--44-444-4-676-7--------------------44-444-4-676-7-7-99-999-9-77-777-7--||
||--44-444-4-454-7---9-9-7-7-5-5-4-4--44-444-4-454-7-7-99-999-9-55-555-5--||
||--22-222-2-----5--------------------22-222-2-----5-5-77-777-7-----------||


verse 2 cont. guitar 1
||---------------------------------------------------------------------------||
||---------------------------------------------------------------------------||
||---------------676-----77-777-777-777-7----------676--------------77-777-7-||
||---------------676-7---77-777-777-777-7-44-444-4-676-7-7-99-999-9-77-777-7-||
||--444-4-44-44--454-7---55-555-555-555-5-44-444-4-454-7-7-99-999-9-55-555-5-||
||--222-2-22-22------5--------------------22-222-2-----5-5-77-777-7----------||
| pm...   ..
|
| verse 2 cont. guitar 2
||---------------------------------------------------------------------------||
||---------------------------------------------------------------------------||
||---------------676-----11119-9-7-7-6-6-----------676--------------77-777-7-||
||---------------676-7--------------------44-444-4-676-7-7-99-999-9-77-777-7-||
||--444-4-44-44--454-7---9-9-7-7-5-5-4-4--44-444-4-454-7-7-99-999-9-55-555-5-||
||--222-2-22-22------5--------------------22-222-2-----5-5-77-777-7----------||
  pm...   ..


chorus guitar 1
||--------------------------------------------------------------------||
||--------------------------------------------------------------------||
||-----6~------4~---------------6-7-----6~------4~---77-777-799-91111-||
||---7~--7~--6~--6~-------------6-7---7~--7~--6~--6~------------------||
||-----------------444444444444-4-5------------------55-555-577-799---||
||-5~------4~------222222222222-----5~------4~------------------------||
| pm               ............
|
| chorus guitar 2
||-------------------------------------------------------||
||-------------------------------------------------------||
||-----6~------4~---------------6-7-----6~------4~-------||
||---7~--7~--6~--6~-------------6-7---7~--7~--6~--6~-2~--||
||-----------------444444444444-4-5------------------2~--||
||-5~------4~------222222222222-----5~------4~-------0~--||
  pm               ............


chorus cont. guitar 1
||------------------------------------------------------------------||
||------------------------------------------------------------------||
||-----6~------4~------------------------6~------4~-------9-7-6-----||
||---7~--7~--6~--6~--------------------7~--7~--6~--6~-2~--9-7-6--7~-||
||-----------------4444444444444444-------------------2~--7-5-4--7~-||
||-5~------4~------2222222222222222--5~------4~-------0~---------5~-||
| pm               ................
|
| chorus cont. guitar 2
||------------------------------------------------------------------||
||------------------------------------------------------------------||
||-----6~------4~------------------------6~------4~-------9-7-6-----||
||---7~--7~--6~--6~--------------------7~--7~--6~--6~-2~--9-7-6--7~-||
||-----------------4444444444444444-------------------2~--7-5-4--7~-||
||-5~------4~------2222222222222222--5~------4~-------0~---------5~-||
  pm               ................
Suggest correction
What's this?
You can suggest a correction to this tab. Community and Mods will review your correction and vote to approve or reject it.
comments
We did not receive enough feedback on this tab! Please rate:
print report bad tab
1 2 3 4 5
2 comments total.
0 reply
Dauh 88 wrote on July 29 2010, 04:32 pm

why does it say unregistered? i tabbed this

0 reply
onthepull 556 wrote on July 29 2010, 07:22 pm

were you logged in when you submitted?
great job anyway.

guest
You may want to rate the tab now too:
select rating
Please do not post tabs as comments. Select "correction" instead!