Oops, an error
Loading. Please wait.

Daybreak I Somehow You Love Me Tab

2,016 views 3 this week
no commentswrite comment
1 2 3 4 5
please rate
add to favorites
launch autoscroll
font size
0
reset
how to read this tab
guitar tuner
Autoscroll
slow
fast
+/-
esc
set tempo
stop
Help us to improve Ultimate-Guitar.com Take our survey!
×
Author
Difficulty
Tuning
Capo
novice
D# G# C# F# A# D#
2nd fret
-------------------------------------------------------------------------------
                        DAYBREAK: SOMEHOW YOU LOVE ME (ACOUSTIC) - Saves the Day
-------------------------------------------------------------------------------
Tabbed by: Erik Steinmeyer
Email: steinmeyer@gmail.com

REVISED 10/03/11

Tuning: Half-Step Down (Capo: 2nd fret)

e|---------------------------------------------------------------------------|
B|---------0-0-----0-0-------0-0-----0-0---------0-------0-0-----0-0---0-0---|
G|---------4-4-----2-0-------4-4-----2-0-------3---------2-0-----4-4---2-0---|
D|---------------------------------------------------------------------------| x7
A|---------------------------------------------------------------------------|
E|-----3-3-------3-------3-3-------3-------0-0-------0-------0-0-------------|


Guitar 2 strums these chords:

(just the G chord at the beginning of the fourth repetition of the above measure, then 
the lower measure in its entirety for the remainder of the song.)

e|-----3------------------------------------0---------------------2----------|
B|-----3------------------------------------0-----------------------0----0---|
G|-----0------------------------------------0-------------------------0------|
D|-----0------------------------------------2--------------------------------|
A|-----2------------------------------------2--------------------------------|
E|-----3------------------------------------0--------------------------------|

e|----------3----------------------------------------------------------------|
B|---------3-----------------------------------------------------------------|
G|--------0------------------------------------------------------------------|
D|-------0-------------------------------------------------------------------|
A|------2--------------------------------------------------------------------|
E|-----3---------------------------------------------------------------------|

| /  slide up
| \  slide down
| h  hammer-on
| p  pull-off
| ~  vibrato
| +  harmonic
| x  Mute note
===============================================================================
Suggest correction
Give kudos to tab author, rate the tab!
1 2 3 4 5
comments
print report bad tab
guest
You may want to rate the tab now too:
select rating
Please do not post tabs as comments. Select "correction" instead!