Oops, an error
Loading. Please wait.

Dont Know Why Tab

version 1
version 1

Whole song

Interactive

4,505 views 3 this week
2 commentsread comments
1 2 3 4 5
accurate
x 3
add to favorites
launch autoscroll
font size
0
reset
how to read this tab
guitar tuner
Autoscroll
slow
fast
+/-
esc
set tempo
stop
Help us to improve Ultimate-Guitar.com Take our survey!
×
Author
Difficulty
jafoo0 40
intermediate
--------------------------------------------------------------------------
			     Don't Know why - Saves The day
--------------------------------------------------------------------------

Tabbed by: johnwoodotcom
Email: jafoo0@yahoo.com
Tuning: Standard

Notes:
The lyrics may not all be right.. 

Tablature:
I listened the best I could.. I think it's pretty accurate.


Intro - 
E|-------4-------4----4---|-----4-------4----4---|
B|-5---4---4--7---4-7-----|---4---4--7---4-7-----|
G|------------------------|6---------------------|
D|------------------------|----------------------|
A|------------------------|----------------------|
E|------------------------|----------------------|


There must be somethign wrong with me,
I get so tired I can't sleep
The voices in my head are hauntin' my dreams
E|------------------|---0--------------|
B|----5---------4---|-----0-----0-4-0--|
G|------6---------4-|-1-----1----------|
D|--7-----6-4-7-----|----------4-------| x 3
A|------------------|------------------|
E|------------------|------------------|


No matter how i try
to kill the thoughts inside
I can not i can not hide

E|------------------|------------------|-----------------|
B|----5---------4---|----5---------4---|---5-------4-----|
G|------6---------4-|------4-----4---4-|-----2-------2---|
D|--7-----6-4-7-----|--6-----6-4-------|-4-----4--4----4-|
A|------------------|------------------|-----------------|
E|------------------|------------------|-----------------|

(intro part again)
E|-------4-------4----4---|-----4-------4----4---|
B|-5---4---4--7---4-7-----|---4---4--7---4-7-----|
G|------------------------|6---------------------|
D|------------------------|----------------------|
A|------------------------|----------------------|
E|------------------------|----------------------|


The mirror staring back at me
the crackin lines along my face??
the times i try to get things stragiht, but could not
E|------------------|---0--------------|
B|----5---------4---|-----0-----0-4-0--|
G|------6---------4-|-1-----1----------|
D|--7-----6-4-7-----|----------4-------| x 3
A|------------------|------------------|
E|------------------|------------------|


I know how hard i try
to keep myself alive
i don't know, i don't know why
E|------------------|------------------|-----------------|
B|----5---------4---|----5---------4---|---5-------4-----|
G|------6---------4-|------4-----4---4-|-----2-------2---|
D|--7-----6-4-7-----|--6-----6-4-------|-4-----4--4----4-|
A|------------------|------------------|-----------------|
E|------------------|------------------|-----------------|



Guitar 1:
Keep playing this while guitar 2 goes:
E|-4-------|-4-----|-5-----|-5-----|-4--------------|
B|-5-------|-4-----|-5-----|-5-----|-4--------------|
G|-6--x16--|-4-x8--|-6-x4--|-5-x4--|-4-x8-----------|
D|---------|-------|-------|-------|----------------|
A|---------|-------|-------|-------|----------------|
E|---------|-------|-------|-------|----------------|

E|-4-------------|-4---------------|-5--------5-----|----------------|
B|-5-------------|-4---------------|-5--------5-----|----------------|
G|-6--x8---------|-4-x8------------|-6-x4-----5-x4--|----------------|
D|---------------|-----------------|----------------|----------------|
A|---------------|-----------------|----------------|----------------|
E|---------------|-----------------|----------------|----------------|

Guitar 2:
Play this in the background a couple of times as guitar1
plays the measures above.
E|------------|------|------|------|-----2-4---4--2-|
B|------------|------|------|------|---4-----4------|
G|------------|------|------|------|----------------|
D|------------|------|------|------|----------------|
A|------------|------|------|------|----------------|
E|------------|------|------|------|----------------|

guitar2 ends with something like this:
E|-----2-4---4--2-|-----2-4---4--2-|-----2-4---4--2-|-222-4444-222-00|
B|---4-----4------|---4-----4------|---5-----4------|----------------|
G|----------------|----------------|----------------|----------------|
D|----------------|----------------|----------------|----------------|
A|----------------|----------------|----------------|----------------|
E|----------------|----------------|----------------|----------------|

sometimes i feel like i am dying DOWN HERE
i feel a raging stone inside of my skin
the dial tone is never.. no-one's callling
E|------------------|---0--------------|
B|----5---------4---|-----0-----0-4-0--|
G|------6---------4-|-1-----1----------|
D|--7-----6-4-7-----|----------4-------| x 3
A|------------------|------------------|
E|------------------|------------------|

i feel the weight of time,
wonder when i will die
i don't know, i don't know why
				               		   ?
E|------------------|------------------|-----------------|-7--|
B|----5---------4---|----5---------4---|---5-------4-----|-9--|
G|------6---------4-|------4-----4---4-|-----2-------2---|-9--|
D|--7-----6-4-7-----|--6-----6-4-------|-4-----4--4----4-|-9--|
A|------------------|------------------|-----------------|----|
E|------------------|------------------|-----------------|----|

do this a couple of times... 
guitar 2 is pretty easy to figure out at this point.
E|-----4-------4----4---|-----4-------4----4---|
B|---4---4--7---4-7-----|---4---4--7---4-7-----|
G|----------------------|6---------------------|
D|----------------------|----------------------|
A|----------------------|----------------------|
E|----------------------|----------------------|
Suggest correction new What's this?
You can suggest a correction to this tab. Community and Mods will review your correction and vote to approve or reject it.
comments
We did not receive enough feedback on this tab! Please rate:
print report bad tab
1 2 3 4 5
2 comments total.
0 reply
under_world 127 wrote on June 18 2006, 02:04 pm

It's pretty close to the music. Good Work!

0 reply
emo_punk_guitar 127 wrote on December 22 2007, 06:29 pm

almost, missing some notes

guest
You may want to rate the tab now too:
select rating
Please do not post tabs as comments. Select "correction" instead!